» » »

Bob Marley, Bad Card Bass tabs (ver.1)

Artists:  A B C D E F G H I J K L M N O P Q R S T U V W X Y Z # 

Bad Card Bass tabs (ver.1)

Bob Marley Tabs
 Rating:
4.2/5 (5 votes)
Bad Card lessons Tabs too difficult? Try these video lessons and learn fast
                 Title - Bad Card
 Artist - Bob Marley & the Wailers
 Album - Uprising


    intro;
G|---------------------------------------|
D|-------------------5-5--5-5--5-5--5-5--|
A|--8---7---5---0-5----------------------|
E|---------------------------------------|

     riff 1 x6                                     play before riff 2
G|------------5-5---------------------------------|-------------|
D|-----------------7-5----------------------------|-------------|
A|----------------------7-------------------------|-------------|
E|--3-3--3-3---------------3-3--3-3--5-5--0-3--5--|--5--0-3--5--|

    riff 2
G|--------------------------------------------|
D|--------------------------------------------|
A|------------3-3---3--------------3-3---3----|
E|--1-1--1-1------3---3---1-1--1-1-----3---3--|

G|------------------------------------------------|
D|------------------------------------------------|
A|------------3-3---3--------------------3-3-3-3--|
E|--1-1--1-1------3---3-----1-1-1--3-3-3----------|
   repeat riff 1 x3

    riff 3
G|-----------------------------------------------|
D|---------------------------5-5--5-5--5-5--5-5--|
A|--8-8--7-7---5-5-5--0-5-5----------------------|
E|-----------------------------------------------|

G|------------------------------------------------5----------|
D|---------------------------------------------------7-5-----|
A|--8-8--7--5-5-5--5--0-5-5-------------------------------7--|
E|---------------------------3-3--0-3---3-3--0-3-------------|
       repeat riff 1 to fade
            
Submit corrections

comments powered by Disqus
↑ Back to top | Bob Marley Bass for Bad Card. Lyrics for acoustic guitar and electric guitar. Tablatures and chords are parodies/interpretations of the original songs. You may use it for private study, scholarship, research or language learning purposes only