>
 >
Africa Unite 1

Africa Unite 1 Bass Tabs

Bob Marley - Africa Unite 1 chords, tabs, tablatures, lyrics

Guitar lessons | Add/correct | Request | Top 50 tabs Artists:  A B C D E F G H I J K L M N O P Q R S T U V W X Y Z 0-9

Africa Unite 1 Bass Tabs – Bob Marley

CD, Sheet music, Poster

Do you like Africa Unite 1? Share with your friends now
Bass TabsBass Tabs v2Bass Tabs v3ChordsUkulele
Song Name- Africa Unite
Artist- Bob Marley
Album- Disc 4 (Songs of Freedom box set)

Intro/Chorus 
G |-----------------------------------|
D |-----------------------------------|
A |------------5-5-5-----7-7-7----7-7-|
E |--3-3-3----------------------------|

Verse
G |--------------------------|
D |--------------------------|
A |---2-3-----5-5-5----7-5---|
E |-3----------------------7-|

This is just a rough outline, some parts 
I have still not firgured out but you get
the picture.
There is some variation in the Intro/Chorus, 
sometimes it is played like this...

G |-----------------------------------|
D |-----------------------------------|
A |------------5-5-5-----7-7-7----5-7-|
E |--3-3-3----------------------------|

or like this...

G |-------------------------------------|
D |-------------------------------------|
A |------------5-5-5-----7-7-7----7-7-7-|
E |--3-3-3------------------------------|

             ...One Love...





Comments


Popular Bob Marley tabs & chords
Africa Unite Bass Tabs
Ambush In The Night Bass Tabs
Could You Be Loved 2 Bass Tabs
Natural Mystic Chords
Ride Natty Ride 1 Chords
Waiting In Vain Chords
Work Chords
Duppy Conqueror Ukulele
I Shot The Sheriff Ukulele
Ride Natty Ride Ukulele


Song lyrics



↑ Back to top | Tablatures and chords are parodies/interpretations of the original songs. You may use it for private study, scholarship, research or language learning purposes only
© 2014 AZChords.com Contact us | Privacy policy | DMCA | Add/correct tabs | Request tabs | Top 50 tabs