» » »

Bob Dylan, Its Alright Ma Tabs (ver.2)

Artists:  A B C D E F G H I J K L M N O P Q R S T U V W X Y Z # 

Its Alright Ma Tabs (ver.2)

Bob Dylan Tabs
Rating:
0/5 (0 votes)
Its Alright Ma lessons Tabs too difficult? Try these video lessons and learn fast
                Its alright ma

By POUNDMA! - max lol


     SLIDY RIFF THING
     Q    Q    Q    E  E     E  E  Q    Q    Q       Q    Q    Q    E  E   
E||--2----2---------2--2--|--5--5--7----5----2----|--2----2---------2--2--|
B||--3----3---------3--3--|--6--6--8----6----3----|--3----3---------3--3--|
G||--2----2---------2--2--|--5--5--7----5----2----|--2----2---------2--2--|
D||--0----0---------0--0--|-----------------------|--0----0---------0--0--|
A||-----------------------|-----------------------|-----------------------|
E||-----------------------|-----------------------|-----------------------|

                                                                 VERSE
  E  E  Q    Q    Q       Q    Q    Q    Q       Q    Q    Q    Q     
--5--5--7----5----2----|--2----2----2----2----|-------2---------2----|
--6--6--8----6----3----|--3----3----3----3----|-------3---------3----|
--5--5--7----5----2----|--2----2----2----2----|-------2---------2----|
-----------------------|--0----0----0----0----|-------0---------0----|
-----------------------|----------------------|--2---------2---------|
-----------------------|----------------------|----------------------|


  Q    Q    Q    Q       Q    Q    Q    Q       Q    Q    Q    Q     
-------2---------2----|-------2---------2----|-------2---------2----|
-------3---------3----|-------3---------3----|-------3---------3----|
-------2---------2----|-------2---------2----|-------2---------2----|
-------0---------0----|-------0---------0----|-------0---------0----|
--2---------2---------|--0---------0---------|--0---------0---------|
----------------------|----------------------|----------------------|


  Q    Q    Q    Q       Q    Q    Q    Q       Q    Q    Q    Q     
-------2---------2----|-------2---------2----|-------2---------2----|
-------3---------3----|-------3---------3----|-------3---------3----|
-------2---------2----|-------2---------2----|-------2---------2----|
-------0---------0----|-------0---------0----|-------0---------0----|
--3---------3---------|--3---------3---------|--2---------2---------|
----------------------|----------------------|----------------------|


  Q    Q    Q    Q       Q    Q    Q    Q       Q    Q    Q    Q     
-------2---------2----|-------2---------2----|-------2---------2----|
-------3---------3----|-------3---------3----|-------3---------3----|
-------2---------2----|-------2---------2----|-------2---------2----|
-------0---------0----|-------0---------0----|-------0---------0----|
--2---------2---------|--1---------1---------|--1---------1---------|
----------------------|----------------------|----------------------|


  Q    Q    Q    E  E     E  E  Q    Q    Q       Q    Q    Q    E  E   
--2----2---------2--2--|--5--5--7----5----2----|--2----2---------2--2--|
--3----3---------3--3--|--6--6--8----6----3----|--3----3---------3--3--|
--2----2---------2--2--|--5--5--7----5----2----|--2----2---------2--2--|
--0----0---------0--0--|-----------------------|--0----0---------0--0--|
-----------------------|-----------------------|-----------------------|
-----------------------|-----------------------|-----------------------|

                                                          so dont fear ...
  E  E  Q    Q    Q       Q    Q    Q    Q       Q    Q    Q    Q     
--5--5--7----5----2----|--2----2----2----2----|--2----2----2----2----|
--6--6--8----6----3----|--3----3----3----3----|--3----3----3----3----|
--5--5--7----5----2----|--2----2----2----2----|--2----2----2----2----|
-----------------------|--0----0----0----0----|--0----0----0----0----|
-----------------------|----------------------|----------------------|
-----------------------|----------------------|----------------------|
                                   
                                                         a foreign sound ..
  Q    Q    Q    Q       Q    Q    Q    Q       Q    Q    Q    Q     
--0----0----0----0----|--2----2----2----2----|--3----3----3----3----|
--2----2----2----2----|--3----3----3----3----|--3----3----3----3----|
--2----2----2----2----|--2----2----2----2----|--0----0----0----0----|
--2----2----2----2----|--0----0----0----0----|--0----0----0----0----|
--0----0----0----0----|----------------------|--2----2----2----2----|
----------------------|----------------------|--3----3----3----3----|

                                                              im only sighing
  Q    Q    Q    Q       Q    Q    Q    Q       Q    Q    Q    E  E   
--2----2----2----2----|--0----0----0----0----|--2----2---------2--2--|
--3----3----3----3----|--2----2----2----2----|--3----3---------3--3--|
--2----2----2----2----|--2----2----2----2----|--2----2---------2--2--|
--0----0----0----0----|--2----2----2----2----|--0----0---------0--0--|
----------------------|--0----0----0----0----|-----------------------|
----------------------|----------------------|-----------------------|


  E  E  Q    Q    Q       Q    Q    Q    E  E     E  E  Q    Q    Q     
--5--5--7----5----2----|--2----2---------2--2--|--5--5--7----5----2----|
--6--6--8----6----3----|--3----3---------3--3--|--6--6--8----6----3----|
--5--5--7----5----2----|--2----2---------2--2--|--5--5--7----5----2----|
-----------------------|--0----0---------0--0--|-----------------------|
-----------------------|-----------------------|-----------------------|
-----------------------|-----------------------|-----------------------|


  Q    Q    Q    Q      
--2----2----2----2----||
--3----3----3----3----||
--2----2----2----2----||
--0----0----0----0----||
----------------------||
----------------------||
            
Submit corrections

comments powered by Disqus
↑ Back to top | Bob Dylan Tabs for Its Alright Ma. Lyrics for acoustic guitar and electric guitar. Tablatures and chords are parodies/interpretations of the original songs. You may use it for private study, scholarship, research or language learning purposes only