» » »

Bob Dylan, Its Alright Ma Tabs (ver.1)

Artists:  A B C D E F G H I J K L M N O P Q R S T U V W X Y Z # 

Its Alright Ma Tabs (ver.1)

Bob Dylan Tabs
Rating:
0/5 (0 votes)
Its Alright Ma lessons Tabs too difficult? Try these video lessons and learn fast
                This is my first tab so tell me if u like it
Submited by:cookster213 ((oh yeah))


Double Drop D tuning D A D G B D
Capo on 2nd fret

Chords:
D:     000230
F/D:   000213
G/D:   000435
G/B:   x20030
Csus2: x30030
Gm/Bb: x10030
A:     x0222x

4/4
   D               F/D G/D   F/D
D|-0---0---0-0-0---3--/5-----3-3---|
B|-3---3---3-3-3---1--/3-----1-1---|
G|-2---2---2-2-2---2--/4-----2-2---|(play twice more)
D|-0---0---0-0-0---0---0-----0-0---|
A|-0---0---0-0-0---0---0-----0-0---|
D|-0---0---0-0-0---0---0-----0-0---|
 | 1   -   2   -   3   -   4   -   |

   D          Csu2 D                                             Csu2 D
D|-0---0---0-0-0---0---0-0-0-0-0-0-|---------------------0-0-0-0-0---|
B|-3---3---3-3-3---3---3-3-3-3-3-3-|---------------------3-3-3-3-3---|
G|-2---2---2-2-0---2---2-2-2-2-2-2-|---------------------2-2-2-2-0---|(D for 1 bar)
D|-0---0---0-0-0---0---0-0-0-0-0-0-|-3---0---------------0-0-0-0-0---|
A|-0---0---0-0-3---0---0-0-0-0-0-0-|---------3-0---------0-0-0-0-3---|
D|-0---0---0-0-0---0---0-0-0-0-0-0-|-------------3---0---0-0-0-0-0---|
 | 1   -   2   -   3   -   4   -   | 1   -   2   -   3   -   4   -   |

 Verse sequence: 
 G/B
 Darkness at the break of noon
 D
 Shadows even the silver spoon
 Csus2
 The handmade blade, the child's balloon
 G/B
 Eclipses both the sun and moon
 Gm/Bb
 To understand you know to soon there is no sense in 
 D     
 trying

 
 Chorus sequence:
 D                    A
 So don\'t fear if you hear
   D                     G/B
 A foreign sound to your ear
 D    A  G/B   A           D  
 It's al right ma I'm only sighing
            
Submit corrections

comments powered by Disqus
↑ Back to top | Bob Dylan Tabs for Its Alright Ma. Lyrics for acoustic guitar and electric guitar. Tablatures and chords are parodies/interpretations of the original songs. You may use it for private study, scholarship, research or language learning purposes only