» » »

Wahoo Tabs (ver.1)

Artists:  A B C D E F G H I J K L M N O P Q R S T U V W X Y Z # 

Wahoo Tabs (ver.1)

Blur
Rating:
0/5 (0 votes)

Hard to play? Try these video lessons and learn fast.
                EASY SONG, IF YOU CAN PLAY POWERCHORDS YOU CAN PLAY THIS SONG IM POSITIVE
/ just means to slide
() these mean that its optional

Verse PLAY CLEAN
e--------------------------------------------
---------------------------------------------
-10-10-10-(10)--8-8-8-(8)--------------------
-10-10-10-(10)--8-8-8-(8)--6-6-6/10-10-10-10-
--8-8--8--(8)---6-6-6-(6)--6-6-6/10-10-10-10-
E--------------------------4-4-4/-8-8--8--8--


Chorus PLAY WITH DISTORTION
e--------------------------------------------
---------------------------------------------
-10-10-10-(10)--8-8-8-(8)--------------------
-10-10-10-(10)--8-8-8-(8)--6-6-6/10-10-10-10-
--8-8--8--(8)---6-6-6-(6)--6-6-6/10-10-10-10-
E--------------------------4-4-4/-8-8--8--8--

End on...
e--------------
---------------
--10-----------
--10-----------
--8------------
E--------------
            
Hard to play? Try these video lessons and learn fast. | Correct




comments powered by Disqus
↑ Back to top | Tablatures and chords are parodies/interpretations of the original songs. You may use it for private study, scholarship, research or language learning purposes only