» » »

Blur, There's No Other Way Tabs (ver.1)

Artists:  A B C D E F G H I J K L M N O P Q R S T U V W X Y Z # 

There's No Other Way Tabs (ver.1)

Blur Tabs
 Rating:
4/5 (4 votes)
There's No Other Way lessons Tabs too difficult? Try these video lessons and learn fast
                Blur

Intro
e--------------------------------------------------
B-----12---------14-----12----12/3-----5-----5--5--
G---5/12--12-----14--x--12----12/3-3---5--x--7--6--
D---5/12--12h14------x--12----12/--3h5-5--x--7--7--
A--------------------------------------------------
E--------------------------------------------------

Verse
e----------------------------------------------
B--5--5---2-3-----2h3p2---4/7--7-4------2h3p2--
G--4--4---2-2--2----------4/7--7-4--2----------
D--2--2---2-4--4----------4/7--7-4--2h4--------
A----------------------------------------------
E----------------------------------------------

Chorus
e------------------------------------------
B--------9---------7---------3---------2---
G--------9---------7---------4---------2---
D--------9---------7---------5---------2---
A--------7---------5---------5-------------
E-0-------------------3------3-------------
  Theres no other way theres no other way

e-7------------------9-------------------
B-8------------------10------------9--9--
G-7------------------9-------------9--9--
D-9------------------11------------9--9--
A----------------------------------------
E----------------------------------------
  All that you can do is watch them play

end of chorus riff
e------------------------------------------
B------------------------------------------
G---7\4/7----4-------4-----------6h7-------
D----------------5-------5/7--7------------
A------------------------------------------
E------------------------------------------

I couldn't figure out the ending.
            
Submit corrections

comments powered by Disqus
↑ Back to top | Blur Tabs for There's No Other Way. Lyrics for acoustic guitar and electric guitar. Tablatures and chords are parodies/interpretations of the original songs. You may use it for private study, scholarship, research or language learning purposes only