» » »

Song Two Tabs (ver.1)

Artists:  A B C D E F G H I J K L M N O P Q R S T U V W X Y Z # 

Song Two Tabs (ver.1)

Blur
Rating:
0/5 (0 votes)

Hard to play? Try these video lessons and learn fast.
                intro and verse ( clean )

e----------------------------------------------|
B-----------------------9-9--11--13--13-13-13--|
G-10-10--xx--8-8-8--xx--8-8--10--12--12-12-12--|
D-10-10--xx--8-8-8--xx--6-6---8--10--10-10-10--|
A--8--8--xx--6-6-6--xx-------------------------|
D----------------------------------------------|

chorus ( heavy distortion )

e-------------------------------------------|
B-------------------------------------------|
G-------------------------------------------|
D--3-3--xx--1-1-1-xx--6-6--8--10--10-10-10--|
A--3-3--xx--1-1-1-xx--6-6--8--10--10-10-10--|
D--3-3--xx--1-1-1-xx--6-6--8--10--10-10-10--|


e--------------------------------------------------------------------|
B--------------------------------------------------------------------|
G-----------------------------------6-6-6-6-6-6-6-6-6-6-6-6-6-6-6-6--|
D-3-3-3-3-3-3-3-3--6-6-6-6-6-6-6-6--6-6-6-6-6-6-6-6-6-6-6-6-6-6-6-6--|
A-3-3-3-3-3-3-3-3--6-6-6-6-6-6-6-6--4-4-4-4-4-4-4-4-4-4-4-4-4-4-4-4--|
D-3-3-3-3-3-3-3-3--6-6-6-6-6-6-6-6-----------------------------------|
            
Hard to play? Try these video lessons and learn fast. | Correct




comments powered by Disqus
↑ Back to top | Tablatures and chords are parodies/interpretations of the original songs. You may use it for private study, scholarship, research or language learning purposes only