» » »

A Song Bass tabs (ver.3)

Artists:  A B C D E F G H I J K L M N O P Q R S T U V W X Y Z # 

A Song Bass tabs (ver.3)

Blur
Rating:
0/5 (0 votes)

Hard to play? Try these video lessons and learn fast.
                "(2)
intro/verse
g---------------------------
d---------------------------
a--55-333-----------------
e-----------33-5-7---------


chorus
g---------------------------
d---------------------------
a--55-333-----------------
e-----------33-5-7---------
and repeat that the hole song and to me it sounds prety goodand its my first tab 
It sounds better on bass distorded
"            
Hard to play? Try these video lessons and learn fast. | Correct




comments powered by Disqus
↑ Back to top | Tablatures and chords are parodies/interpretations of the original songs. You may use it for private study, scholarship, research or language learning purposes only