>
 >
Beetlebum 1

Beetlebum 1 Guitar Tabs

Blur - Beetlebum 1 chords, tabs, tablatures, lyrics

Guitar lessons | Add/correct | Request | Top 50 tabs Artists:  A B C D E F G H I J K L M N O P Q R S T U V W X Y Z 0-9

Beetlebum 1 Guitar Tabs – Blur

CD, Sheet music, Poster

Do you like Beetlebum 1? Share with your friends now
Bass TabsChordsChords v2TabsTabs v2Tabs v3Tabs v4Tabs v5Ukulele
name=Jose Antonio Rio Ortega
band=Blur
song=Beetlebum
inst_type=Guitar
body=BEETLEBUM 
by
BLUR

INTRO
e--X--X-
B--X--X-
G--X--X-    A LOT OF TIMES
D--X--X-
A--X--X-
E--X--X-

e------------
B------------
G------------   x 9
D------------
A------------
E--9/7-3-3-3-

then

e-----------
B-----------
G----------- x 3
D-----------
A-----------
E--9/7-3-3-3
Beetlebum


e------------
B------------
G------------ x 4
D------------
A------------
E--9/7-4-4-4-
What you´ve done


e---------------------
B---------------------
G--------------------- 
D---------------------
A---------------------
E--3-1-1-1-|--7/5-1-1-1-
She´s a gun|
           |
   Play this bit once, then the second bit 3 times then:


e---------------------------------------------
B---------------------------------------------
G---------------------------------------------
D---------------------------------------------
A---------------------------------------------
E--7/5-3-3-3--9/7-3-3-3-9/7-3-3-3---1---3---2-
Now what you`ve done                Beetlebum


The other  4 verses are all the same, when you are about to change to the chorus do this:

e--8-
B-10-
G-10- X9
D-10-
A--8-
E--8-

The chorus is pretty easy:

     C
And when she lets me slip away
    G           A           
She turns me on and 
                F
All my violence gone
    G
Nothing is wrong
       F            
I just slip away and then
A#  C
I am gone
    G            A
Nothing is wrong
      F          A
She turns me on
          F             
I just slip away and then 
      A#   C
I am gone



The outro is very very easy

e---------------------
B--10-----------------
G------9--------------
D---------10-10/9-9-0-
A---------------------
E---------------------

While you play the outro, your second guitar can play these chords:

A
He`s on................
C
He`s on................
F
He`s on................
G A#
He`s on................



If you find any corrections in the song, send`em to


Also, i am a MEXICAN boy, so if you find any problem with my english, 
correct me to the same direction.

And a request, send me a cool name for my band.





Comments


Popular Blur tabs & chords
A Song 2 Bass Tabs
Coffee & Tv Bass Tabs
Song 2 7 Bass Tabs
Coffee And Tv 2 Chords
Peach Chords
To The End Chords
Globe Alone 1 Tabs
Resigned Tabs
Wahoo Tabs
Young And Lovely Tabs


Song lyrics



↑ Back to top | Tablatures and chords are parodies/interpretations of the original songs. You may use it for private study, scholarship, research or language learning purposes only
© 2014 AZChords.com Contact us | Privacy policy | DMCA | Add/correct tabs | Request tabs | Top 50 tabs