» » »

Battery In Your Leg Tabs (ver.1)

Artists:  A B C D E F G H I J K L M N O P Q R S T U V W X Y Z # 

Battery In Your Leg Tabs (ver.1)

Blur
Rating:
4/5 (4 votes)

Hard to play? Try these video lessons and learn fast.
                
e/-----0--
B/---0----
G/-5------ This clangy sound is put in the song in random places.
D/--------
A/--------
E/--------

e/----------------------------------------------------
B/-------------------------------------Play this at about (0:46),(1:18),(2:19)
G/--------------5-5--4-4--5-5-5-5----4-4-4-4-4-4-4-4-- 
D/--5--3-3-3-3--5-5--4-4--5-5-5-5----5-5-5-5-5-5-5-5--
A/--5--3-3-3-3--3-3--2-2--0-0-0-0----5-5-5-5-5-5-5-5--
E/--3--1-1-1-1-----------------------3-3-3-3-3-3-3-3--


 SOLO (1:38), (2:36)

e/--------------------------|----------------|--------------------------|----------
B/-6-5----------------------|-6-5------------|-6-5----------------------|-6-5------
G/-----4-5------------------|-----4-5--------|-----4-5------------------|-----4-5---
D/---------5-3-2------------|---------5-3-2--|---------5-3-2------------|---------5-
A/---------------3----------|----------------|---------------3----------|-----------
E/-----------------3-1-0-1--|----------------|-----------------3-1-0-1--|-----------
            
Hard to play? Try these video lessons and learn fast. | Correct




comments powered by Disqus
↑ Back to top | Tablatures and chords are parodies/interpretations of the original songs. You may use it for private study, scholarship, research or language learning purposes only