» » »

Blue October, Mr Blues Menu Tabs (ver.1)

Artists:  A B C D E F G H I J K L M N O P Q R S T U V W X Y Z # 

Mr Blues Menu Tabs (ver.1)

Blue October Tabs
 Rating:
4/5 (4 votes)
Mr Blues Menu lessons Tabs too difficult? Try these video lessons and learn fast
                                               Blue October
                              Mr. Blue's Menu
                               The Answers
Standard Tuning

This is a simple song to play. I am 100% sure about this song.

Intro/Outro:
e----------------------------------------------------------|
b----------------------------------------------------------|
g----------------------------------------------------------|
d----------------------------------------------------------|
a--4--x--x--x--x--4--4--4---x--x--x--x--x--x--x--x--x--x---|
e--2--x--x--x--x--2--2--2---x--x--x--x--x--x--x--x--x--x---|

Verse
e----------------|
b----------------|
g----------------|
d----------------|
a--4--11--8--9---|
e--2---9--6--7---|

Outro:
e------|
b------|
g------|
d------|
a--4---|
e--2---|
hold that

The strumming is easy to figure out. Most of the time on the verse he hits the last 
chord 4 times.

Intro 6x
Verse 10x
Intro 4x
Verse 8x
Intro 4x
Outro 1x


Voilin:
E------------------------------|
B-7~-6~--7-6~-4~-------6~-4~---| 1x
G----------------3~-1~---------|

E------------------------------|
B-7~-6~--7-6~-4~-------6~-7~---|  4x
G----------------3~-1~---------|

E-----------------|
B-7~-6~-7-6~-7~---| 2x
G-----------------|

E-------------|
B-------------| 4x
G-3~-3-3-3~---|

E-------------------------------|
B-7~-6~-7-6~-4~----6~-7-6~-7~---| 1x
G---------------3~--------------|

E-----------------|
B-7~-6~-7-6~-7~---| 2x
G-----------------|

E----------------------9--11--11-14~-16---|
B-12~-11~-7-9-7----9-11-11--12------------| 1x
G---------------10------------------------|

E-18-14--18-14-16-16141314-16-16141314-14-16-18-14-9-6---|
B------14------------------------------------------------| 1x
G--------------------------------------------------------|

E-------------|
B-------------| 3x
G-3~-3-3-3~---|

E--------------|
B--------------| 1x
G-3~-3333-3~---|

E------|
B-3~---|
G------|

Questions?
            
Submit corrections

comments powered by Disqus
↑ Back to top | Blue October Tabs for Mr Blues Menu. Lyrics for acoustic guitar and electric guitar. Tablatures and chords are parodies/interpretations of the original songs. You may use it for private study, scholarship, research or language learning purposes only