» » »

Blue October, Into The Ocean Bass tabs (ver.1)

Artists:  A B C D E F G H I J K L M N O P Q R S T U V W X Y Z # 

Into The Ocean Bass tabs (ver.1)

Blue October Tabs
 Rating:
4/5 (4 votes)
Into The Ocean lessons Tabs too difficult? Try these video lessons and learn fast
                Into the ocean by: Blue October
This is my first bass tab. 
But feel free to comment and rate.


INTRO
G)---------------|
D)---------------|
A)3~------3~-----|
E)---------------|

POST-INTRO BRIDGE
G)------------------------------------------------|
D)-----------------3---3---3---3------------------|
A)-0---0---0---0-------------------3---3---3---3--|
E)------------------------------------------------|

CHORUS
G)------------------------------------------------|
D)---------------------------------3---3---3---3--|
A)-3---3---3---3---0---0---0---0------------------|
E)------------------------------------------------|

POST-CHORUS BRIDGE
G)--------------------------------|
D)--------------------------------|
A)-3-3-0h2h3--3-0h2h3--3-0h2h3--3~|
E)--------------------------------|

VERSE
G)------------------------------------------------|
D)---------------------------------3---3---3---3--|
A)-3---3---3---3---0---0---0---0------------------|
E)------------------------------------------------|

OUTRO
G)--------------------------------------|
D)-3~--3~--3~--3~-----------------------|
A)-----------------3~--3~--3~--3~-------|
E)--------------------------------------|
            
Submit corrections

comments powered by Disqus
↑ Back to top | Blue October Bass for Into The Ocean. Lyrics for acoustic guitar and electric guitar. Tablatures and chords are parodies/interpretations of the original songs. You may use it for private study, scholarship, research or language learning purposes only