» » »

Blue October, H.R.S.A Tabs (ver.1)

Artists:  A B C D E F G H I J K L M N O P Q R S T U V W X Y Z # 

H.R.S.A Tabs (ver.1)

Blue October Tabs
 Rating:
4/5 (4 votes)
H.R.S.A lessons Tabs too difficult? Try these video lessons and learn fast
1
                Tuning:  Standard
Effects: I use POD Crunch, drive, delay, and a little reverb, but you might be able
to find something that sounds better

This is my first tab so be nice, but do let me know of any suggestions you have.
I'm questioning if some of the single notes are really supposed to be chords...

Intro:									0:16
e|----------------------------------------------------------------------------|
B|----------------------------------------------------------------------------|
G|---5-12--12-5----5--12-12-5----5--12--5-12---5--12--12-5--------------------|
D|---x--x---x-x----x--x--x--x----x--x---x-x----x--x---x-x---------------------|
A|---3/10--10\3----3/10--10\3----3/10--10\3----3/10--10\3---------------------|
E|----------------------------------------------------------------------------|

									0:25
e|----------------------------------------------------------------------------|
B|----------------------------------------------------------------------------|
G|---4-5-5555555--5-7-7777777--7-9-9999999--9-10-9-7--------------------------|
D|---x-x-xxxxxxx--x-x-xxxxxxx--x-x-xxxxxxx--x-x-x-x---------------------------|
A|---2/3-3333333--3/5-5555555--5/7-7777777--7-8-7-5---------------------------|
E|----------------------------------------------------------------------------|

Admitted at 22...							0:41
e|--------------------x-x-x-x---- x-x-x-x ----------------------------------|
B|--------------------x-x-x-x---- x-x-x-x ----------------------------------|
G|--------------------x-x-x-x---- x-x-x-x ----------------------------------|
D|--------------------x-x-x-x---- x-x-x-x ----------------------------------|
A|-3-2-3--3--3-2-3----x-x-x-x---- x-x-x-x-----------------------------------|
E|--------------------x-x-x-x---- x-x-x-x ---------------------------------|

A bee sting straight...							0:51
e|----------------------------------------------------------------------------|
B|----------------------------------------------------------------------------|
G|--4-4-5--5555555--5-7--7777777--7-5-5555555--5-5--5555----------------------|
D|--x-x-x--xxxxxxx--x-x--xxxxxxx--x-x-xxxxxxx--x-x--xxxx----------------------|
A|--2-2/3--3333333--3/5--5555555--5\3-3333333--3-3--3333----------------------|
E|----------------------------------------------------------------------------|

									0:59
e|---------------------------------------------------------------------------|
B|---------------------------------------------------------------------------|
G|--4-5--5555555--5-7--7777777--7-5-5555555--5-------------------------------|
D|--x-x--xxxxxxx--x-x--xxxxxxx--x-x-xxxxxxx--x-------------------------------|
A|--2/3--3333333--3/5--5555555--5\3-3333333--3-------------------------------|
E|---------------------------------------------------------------------------|

									1:07
e|---------------------------------------------------------------------------|
B|---------------------------------------------------------------------------|
G|--5--12-555555-5555--12-5--------------------------------------------------|
D|--x--x--xxxxxx-xxxx--x--x--------------------------------------------------|
A|--3/10--333333-3333--10\3--------------------------------------------------|
E|---------------------------------------------------------------------------|

To group for the show..						1:16
e|---------------------------------------------------------------------------|
B|---------------------------------------------------------------------------|
G|--4-5-5555555--5-7-7777777--7-9-9999999--9-10-9-7--------------------------|
D|--x-x-xxxxxxx--x-x-xxxxxxx--x-x-xxxxxxx--x-x--x-x--------------------------|
A|--2/3-3333333--3/5-5555555--5/7-7777777--7-8--7-5--------------------------|
E|---------------------------------------------------------------------------|

Knock knock    1:31  Learned quick...		         		1:42
e|---------------------------------------------------------------------------|
B|---------------------------------------------------------------------------|
G|--5-4-5--5--5-4-5--4-4-5--5555555--5-7--7777777--7-5-5555555--5-5--5555----|
D|--x-x-x--x--x-x-x--x-x-x--xxxxxxx--x-x--xxxxxxx--x-x-xxxxxxx--x-x--xxxx----|
A|--3-2-3--3--3-2-3--2-2/3--3333333--3/5--5555555--5\3-3333333--3-3--3333----|
E|---------------------------------------------------------------------------|

Screaming voices							1:50
e|---------------------------------------------------------------------------|
B|---------------------------------------------------------------------------|
G|--4-5--5555555--5-7--7777777--7-5-5555555--5-------------------------------|
D|--x-x--xxxxxxx--x-x--xxxxxxx--x-x-xxxxxxx--x-------------------------------|
A|--2/3--3333333--3/5--5555555--5\3-3333333--3-------------------------------|
E|---------------------------------------------------------------------------|

Breathing, they...							2:10
e|---------------------------------------------------------------------------|
B|---------------------------------------------------------------------------|
G|--4-5-5--4-5-5555555--5-7-7777777--7-9-9999999--9-10-10-10-10-10-10-10-10--|
D|--x-x-x--x-x-xxxxxxx--x-x-xxxxxxx--x-x-xxxxxxx--x-x---x-x-x--x--x--x--x----|
A|--2-3-3--2/3-3333333--3/5-5555555--5/7-7777777--7/8---8-8-8--8--8--8--8----|
E|---------------------------------------------------------------------------|

				     2:16	 2:28
e|---------------------------------------------------------------------------|
B|---------------------------------------------------------------------------|
G|--4-5-5555555--5-7-7777777--7-9-9999999---------7-5------------------------|
D|--x-x-xxxxxxx--x-x-xxxxxxx--x-x-xxxxxxx---------x-x------------------------|
A|--2/3-3333333--3/5-5555555--5/7-7777777---------5/3------------------------|
E|---------------------------------------------------------------------------|

At all...								2:42
e|---------------------------------------------------------------------------|
B|---------------------------------------------------------------------------|
G|--4-4-5--5555555--5-7--7777777--7-5-5555555--5-5--5555---------------------|
D|--x-x-x--xxxxxxx--x-x--xxxxxxx--x-x-xxxxxxx--x-x--xxxx---------------------|
A|--2-2/3--3333333--3/5--5555555--5\3-3333333--3-3--3333---------------------|
E|---------------------------------------------------------------------------|

All...									2:50
e|-------------------------------------------------------------------------|
B|-------------------------------------------------------------------------|
G|--4-5--5555555--5-7--7777777--7-5-5555555--5-----------------------------|
D|--x-x--xxxxxxx--x-x--xxxxxxx--x-x-xxxxxxx--x-----------------------------|
A|--2/3--3333333--3/5--5555555--5\3-3333333--3-----------------------------|
E|-------------------------------------------------------------------------|

									3:06
e|-------------------------------------------------------------------------|
B|-------------------------------------------------------------------------|
G|-------------------------------------------------------------------------|
D|-------------------------------------------------------------------------|
A|--7b-5b-3b--3-5p-3---3-5--7b-5b-3b--3-5p-3-------------------------------|
E|-------------------------------------------------------------------------|

								end
e|-------------------------------------------------------------------------|
B|-------------------------------------------------------------------------|
G|-------------------------------------------------------------------------|
D|-------------------------------------------------------------------------|
A|--3-5-7-5-3--3--3-5-7-5-3--3--3-5-7~______-------------------------------|
E|-------------------------------------------------------------------------|



| /  slide up
| \  slide down
| p  pull-off
| ~  vibrato
| b  bend
| x  Mute note
            
Submit corrections

comments powered by Disqus
↑ Back to top | Blue October Tabs for H.R.S.A. Lyrics for acoustic guitar and electric guitar. 1 Tablatures and chords are parodies/interpretations of the original songs. You may use it for private study, scholarship, research or language learning purposes only