» » »

Blue Collar Special, Dont Wait Tabs (ver.1)

Artists:  A B C D E F G H I J K L M N O P Q R S T U V W X Y Z # 

Dont Wait Tabs (ver.1)

Blue Collar Special Tabs
 Rating:
4/5 (4 votes)
Dont Wait lessons Tabs too difficult? Try these video lessons and learn fast
1
                
  INTRO
e|---------------------------------------------------------------------------|
B|---------------------------------------------------------------------------|
G|-9--7--6----7--6--7--6-----------------------------------------------------|
D|-7--7--7----7--7--7--7--7--------------------------------------------------|
A|------------------------0--------------------------------------------------|
E|---------------------------------------------------------------------------|



Vers
e|---------------------------------------------------------------------------|
B|---------------------------------------------------------------------------|
G|---------------------------------------------------------------------------|
D|----9--6--7----------------------------------------------------------------|
A|-7--7--4--5--7-------------------------------------------------------------|
E|-5-----------5-------------------------------------------------------------|


Refräng

e|---------------------------------------------------------------------------|
B|---------------------------------------------------------------------------|
G|---------------------------------------------------------------------------|
D|-9--7----------------------------------------------------------------------|
A|-7--5--7-------------------------------------------------------------------|
E|-------5-------------------------------------------------------------------|


Mellanspel

e|-5--------5---5---5---------5----------------------------------------------|
B|---5---------5---5---5----------5------------------------------------------|
G|---------------------------------------------------------------------------|
D|---------------------------------------------------------------------------|
A|---------------------------------------------------------------------------|
E|---------------------------------------------------------------------------|


Solo

e|---------------------------------------------------------------------------|
B|---------------------------------------------------------------------------|
G|-9-9---9-9-9---9-9---9-9-9--9-9---9-7-6------------------------------------|
D|----------------------------------------7----------------------------------|
A|---------------------------------------------------------------------------|
E|---------------------------------------------------------------------------|



Mellanspel

e|-5--------5----5----5---------5--------------------------------------------|
B|----5---------5----5----5---------5----------------------------------------|
G|---------------------------------------------------------------------------|
D|---------------------------------------------------------------------------|
A|---------------------------------------------------------------------------|
E|---------------------------------------------------------------------------|
            
Submit corrections

comments powered by Disqus
↑ Back to top | Blue Collar Special Tabs for Dont Wait. Lyrics for acoustic guitar and electric guitar. 1 Tablatures and chords are parodies/interpretations of the original songs. You may use it for private study, scholarship, research or language learning purposes only