>
 >
Dont Wait 1

Dont Wait 1 Guitar Tabs

Blue Collar Special - Dont Wait 1 chords, tabs, tablatures, lyrics

Guitar lessons | Add/correct | Request | Top 50 tabs Artists:  A B C D E F G H I J K L M N O P Q R S T U V W X Y Z 0-9

Dont Wait 1 Guitar Tabs – Blue Collar Special

CD, Sheet music, Poster

Do you like Dont Wait 1? Share with your friends now
Bass TabsBass Tabs v2TabsTabs v2Tabs v3
I made this tab because I couldn't find any Blue Collar Special tabs on the internet and
Collar Special kicks a$$. This one's off Tony Hawk's Underground. Sorry if it's a
hard to follow. Standard Tuning, I'm pretty sure it's correct but you better play it a 

Guitar 1-(Intro)Heavy Distortion

E|---------------------------|
B|---------------------------|
G|-9x--7x--6x--6h7-6-7-6-----|(x6)Gets a little muffled the 5th time
D|-7x--7x--7x------------7---|
A|---------------------------|
E|---------------------------|

Guitar 2-(Intro) Start after Guitar 1 plays once
                            (fade out as verse 1 begins)
E|-------------|---------|-----------------------------------|
B|-------------|---------|-----------------------------------|
G|-------------|---------|-14-14-14-14-14-14-14-14-14-14-----|
D|-7-----------|-7x------|-14-14-14-14-14-14-14-14-14-14-(x2)|
A|-7-(let ring)|-7x-(x11)|-12-12-12-12-12-12-12-12-12-12-----|
E|-5-----------|-5x------|-----------------------------------|

Guitar 1-(Verse 1)Heavy Distortion
      "What's the point of waking up today..."
E|------------------------------------------------------------|
B|------------------------------------------------------------|
G|------------------------6-6\7-7-7-7-7-7-7-7-7-7-7-----------|
D|-7-7-7-7-7-7-7-7-7-7-7--6-6\7-7-7-7-7-7-7-7-7-7-7-----------|(x4)
A|-7-7-7-7-7-7-7-7-7-7-7--4-4\5-5-5-5-5-5-5-5-5-5-5-----------|
E|-5-5-5-5-5-5-5-5-5-5-5--------------------------------------|
pm.............................................................

Guitar 2-(Verse 1)
      "Well I've been confused..."
E|-------------|-------------|-------------|--------------------|
B|-------------|-------------|-------------|--------------------|
G|-------------|-7x--7--7x--7|-9x--9--9x--9|-7x--7--7x--7-------|
D|-7x--7--7x--7|-7x--7--7x--7|-9x--9--9x--9|-7x--7--7x--7-------|(x2)
A|-7x--7--7x--7|-5x--5--5x--5|-7x--7--7x--7|-5x--5--5x--5-------|
E|-5x--5--5x--5|-------------|-------------|--------------------|

Guitars 1 & 2-(Chorus 1)

      "Why Wait, Why Wait..."
E|-----------------------------------|
B|-----------------------------------|
G|-9-9-9-9--7-7-7-7-7-7-7-7----------|
D|-9-9-9-9--7-7-7-7-7-7-7-7--7-7-7-7-|(x2)
A|-7-7-7-7--5-5-5-5-5-5-5-5--7-7-7-7-|
E|---------------------------5-5-5-5-|

Guitar 1-(Post Chorus)

E|------------------------------------|
B|-10------10---10--------------------|
G|----9--9----9-----------------------|
D|------------------------------------|(x2)
A|------------------------------------|
E|------------------------------------|

Guitars 1 & 2-(Verse 2) same as verse 1

Guitars 1 & 2-(Repeat Chorus 1)

Guitar 1-(Solo 1)

E|------------------------------------|----------------------|
B|------------------------------------|-10----10--10--10--10-|
G|-9-9b-9-9-9-9-9b-9-9-9-9--7-6-------|----------9---9---9---|(let ring)
D|------------------------------7-(x2)|----------------------|
A|------------------------------------|----------------------|
E|------------------------------------|----------------------|

Guitar 2-(Solo 1)

E|----------------------------|
B|----------------------------|
G|----9-------9-----9---------|
D|-7--9--7-7--9--7--9--7--(x2)| fade out after first part of
A|-7--7--7-7--7--7--7--7------| guitar 1's solo
E|-5-----5-5-----5-----5------|

Guitar 1-(Verse 3)Guitar 2 can sit back and relax until chorus

"Well I've been confused..."

E|-5-4-5-4-5-4-5-4-5-4-5-4-5-4-5-4-5-4-5-4-5-4------|
B|--------------------------------------------------|
G|--------------------------------------------------|
D|--------------------------------------------------|
A|--------------------------------------------------|
E|--------------------------------------------------|

Guitars 1 & 2-(Chorus 2)

      "Why Wait, Why Wait..."
E|-----------------------------------|
B|-----------------------------------|
G|-9-9-9-9--7-7-7-7-7-7-7-7----------|
D|-9-9-9-9--7-7-7-7-7-7-7-7--7-7-7-7-|(x4)
A|-7-7-7-7--5-5-5-5-5-5-5-5--7-7-7-7-|
E|---------------------------5-5-5-5-|

Guitar 1-(Solo 2)

E|------------------------------------------|
B|--------------------------------10--------|
G|-9-9b-9-9-9-9-9b-9-9-9-9--7-6------9--(x2)|
D|------------------------------7-----------|
A|------------------------------------------|
E|------------------------------------------|

Guitar 2-(Solo 2)

E|----------------------------|
B|----------------------------|
G|----9-------9-----9---------|
D|-7--9--7-7--9--7--9--7--(x2)|
A|-7--7--7-7--7--7--7--7------|
E|-5-----5-5-----5-----5------|

END ON

E|--------|
B|--------|
G|-14-----|
D|-14-----|
A|-12-----|
E|--------|





Comments


Popular Blue Collar Special tabs & chords
Dont Wait Bass Tabs
Dont Wait 2 Bass Tabs
Waste My Time Bass Tabs
Come Again Tabs
Dont Wait Tabs
Dont Wait 2 Tabs
Take The Blame Tabs
Waste My Time Tabs


Song lyrics



↑ Back to top | Tablatures and chords are parodies/interpretations of the original songs. You may use it for private study, scholarship, research or language learning purposes only
© 2014 AZChords.com Contact us | Privacy policy | DMCA | Add/correct tabs | Request tabs | Top 50 tabs