» » »

*Blink 182*, Whats My Age Again Tabs (ver.2)

Artists:  A B C D E F G H I J K L M N O P Q R S T U V W X Y Z # 

Whats My Age Again Tabs (ver.2)

*Blink 182* Tabs
 Rating:
4/5 (4 votes)
Whats My Age Again lessons Tabs too difficult? Try these video lessons and learn fast
                "(2)
|----------------------------------------------|
|------11----------11---------11---------11----|
|---11----11----11----11---11----11---11----11-|
|-9--------------------------------------------|
|------------11--------------------------------|
|------------------------9---------11----------|



|---------------|
|---------------|
|----66--88--44-|
|-4--66--88--44-|
|-4--44--66--22-|
|-2-------------|


|-----------------|
|-----------------|
|----66--8888-666-|
|-4--66--8888-666-|
|-4--44--6666-444-|
|-2---------------|

This riff is palm muted
|--------------|
|--------------|
|-444---66688--|
|-44466666688--|
|-22266644466--|
|----444-------|

Solo
|--------------------|
|---11-----11--------|
|------11-----11-----|
|-9----------------9-|
|--------------------|
|--------------------|


|---------|
|---------|
|---------|
|-----8H9-|
|-999-----|
|---------|

|--------------|
|--------------|
|-------11-----|
|---8------8H9-|
|-9---9--------|
|--------------|
"            
Submit corrections

comments powered by Disqus
↑ Back to top | *Blink 182* Tabs for Whats My Age Again. Lyrics for acoustic guitar and electric guitar. Tablatures and chords are parodies/interpretations of the original songs. You may use it for private study, scholarship, research or language learning purposes only