» » »

*Blink 182*, Wendy Clear Tabs (ver.2)

Artists:  A B C D E F G H I J K L M N O P Q R S T U V W X Y Z # 

Wendy Clear Tabs (ver.2)

*Blink 182* Tabs
Rating:
0/5 (0 votes)
Hard to play? Try these video lessons and learn fast.
                Artist- Blink 182
Song- Wendy Clear
CD- Enema of the State

  Intro
E--------------
b--------------
g---0----------
d-------0-3-2--
a-3---3--------
e--------------
  Chorus
e-------------------------------------------------------------
b-------------------------------------------------------------
g-555555555555555------------22222-----------55555555555555555
d-555555555555555-5-33333333-22222-3333333-5-55555555555555555
a-333333333333333-5-33333333-00000-3333333-5-33333333333333333
e-----------------3-11111111-------1111111-3------------------
              x2
Verse
g----------------------
b----------------------
g-222222--------555555- 22222------- 555555------- 2222------ 
d-222222-333333-555555- 22222-333333-555555-555555-2222-3333-
a-000000-333333-333333- 00000-333333-333333-555555-0000-3333-
e--------111111-------- ------111111--------333333------1111-

go to intro
Then Bass plays for a while then....

g---5-555555555-------
d-5-5-555555555-------
a-5-3-333333333-------
e-3------------------ then go to verse but dont play intro play

g-22----55----22----55----------
d-22-33-55-55-22-33-55---------- x2 then intro then verse x3
a-00-33-33-55-00-33-33----------
e----11----33----11-------------



     This was an easy song to figure out it was just hard as hell to
type 
out.
            

comments powered by Disqus
↑ Back to top | *Blink 182* Tabs for Wendy Clear. Lyrics for acoustic guitar and electric guitar. Tablatures and chords are parodies/interpretations of the original songs. You may use it for private study, scholarship, research or language learning purposes only