» » »

*Blink 182*, Toast And Bananas Bass tabs (ver.1)

Artists:  A B C D E F G H I J K L M N O P Q R S T U V W X Y Z # 

Toast And Bananas Bass tabs (ver.1)

*Blink 182* Tabs
 Rating:
4/5 (4 votes)
Toast And Bananas  lessons Tabs too difficult? Try these video lessons and learn fast
                (2)
'>' means 8 times

Riff 1
G:------------------
D:------------------
A:-0000222555555555-
E:------------------

Riff 2
G:----------------------
D:---2>444444220000020--
A:-0>-----------------4-
E:----------------------

Riff 3
G:----------------------------
D:-------2222--4444--0000020--
A:-0000---------------------4-
E:----------------------------

Riff 4
G:-------------------
D:---2>4444442200000-
A:-0>----------------
E:-------------------

Riff 5
G:-----------------
D:-----------------
A:-0>--5>>0>--5>7>-
E:---2>-----2>-----

Riff 6
G:----------
D:----------
A:-0>----5>-
E:---0>2>---

Riff 7
G:------------------
D:---2>4444442-0----
A:-0>-------------0-
E:------------------

Structure
Riff 1 X 8
Riff 2 X 4
Riff 3 X 1
Riff 4 X 1
Riff 1 X 4
Riff 2 X 2
Riff 5 X 1
Riff 3 X 1
Riff 4 X 1
Riff 6 X 4
Riff 5 X 1
Riff 3 X 1
Riff 7 X 1
            
Submit corrections

comments powered by Disqus
↑ Back to top | *Blink 182* Bass for Toast And Bananas. Lyrics for acoustic guitar and electric guitar. Tablatures and chords are parodies/interpretations of the original songs. You may use it for private study, scholarship, research or language learning purposes only