» » »

*Blink 182*, Toast And Bananas Tabs (ver.1)

Artists:  A B C D E F G H I J K L M N O P Q R S T U V W X Y Z # 

Toast And Bananas Tabs (ver.1)

*Blink 182* Tabs
 Rating:
4/5 (4 votes)
Toast And Bananas lessons Tabs too difficult? Try these video lessons and learn fast
                Toast and Bananas

For all you people who actually listen to a Blink album other than Enema of 
the State.


INTRO AND VERSE:  
e|-----------------------------------------------------------------------|
B|-----------------------------------------------------------------------|
G|-2-22222------------------7-777----------------------------------------|
D|-2-22222-2-22222-4-444444-7-777----------------------------------------|
A|-0-00000-2-22222-4-444444-5-555-5-4-2-0--------------------------------|
E|---------0-00000-2-222222----------------------------------------------|

COOL GUITAR RIFF:
e|-----------------------------------------------------------------------|
B|-----------------------------------------------------------------------|
G|-----------------------------------------------------------------------|
D|-----7-7-7-6-6---------------------------------------------------------|
A|-0-0-----------7-7-5-5-4-4--0-0-7-7-7-5-5-4-5-7-5-4-0------------------|
E|-----------------------------------------------------------------------|

PRE CHORUS:
e|-----------------------------------------------------------------------|
B|-----------------------------------------------------------------------|
G|---------------777777777777---------------777777-999999----------------|
D|-777777-444444-777777777777-777777-444444-777777-999999----------------|
A|-777777-444444-555555555555-777777-444444-555555-777777----------------|
E|-555555-222222--------------555555-222222------------------------------|

CHORUS:
e|-----------------------------------------------------------------------|
B|-----------------------------------------------------------------------|
G|-------9-9-9-11-11-11-7-7-7--------999999-11-11-11-11-11-11-777777-----|
D|-7-7-7-9-9-9-11-11-11-7-7-7-777777-999999-11-11-11-11-11-11-777777-----|
A|-7-7-7-7-7-7--9--9--9-5-5-5-777777-777777--9--9--9--9--9--9-555555-----|
E|-5-5-5----------------------555555-------------------------------------|
   For the first half of the chorus pause after each set of chords,listen
to the CD, you'll know what I mean.

SOLO:
e|-----------------------------------------------------------------------|
B|-----------------------------------------------------------------------|
G|-----------------------------------------------------------------------|
D|-----------------------------------------------------------------------|
A|------4-5-7-5-4---(3 times then)-0-2-4h5p4-2---------------------------|
E|--5-7-----------7------------------------------------------------------|
	  
e|----------------------------------------------------------------9------|
B|----------------------------------------------10-10-10-10-10-10---12-10|
G|-----------------------------------------------------------------------|
D|-----------------------------------------------------------------------|
A|------4-5-7-5-4---(3 times then)-0-2-4h5p4-2---------------------------|
E|--5-7-----------7------------------------------------------------------|

e|--------------------9----------------------9-------12-12-10-10-9-9-------|
B|--10-10-10-10-10-10---12-10-10-10-10-10-10---12-10-----------------12-12-|
G|-------------------------------------------------------------------------|
D|-------------------------------------------------------------------------|
A|-------------------------------------------------------------------------|
E|-------------------------------------------------------------------------|

e|--------------------9----------------------9-----------------------------|
B|--10-10-10-10-10-10---12-10-10-10-10-10-10---12-10----9--9/10\9-9/10\9---|
G|----------------------------------------------------9--------------------|
D|-------------------------------------------------------------------------|
A|-------------------------------------------------------------------------|
E|-------------------------------------------------------------------------|

e|-------------------------------|
B|---9/10\9-9/10\9---------------|
G|-----------------9-------------|
D|-------------------------------|
A|-------------------------------|
E|-------------------------------|

End on an A power chord.

I'm pretty sure it's all right I play along with the CD and it sounds perfect 
to me.
            
Submit corrections

comments powered by Disqus
↑ Back to top | *Blink 182* Tabs for Toast And Bananas. Lyrics for acoustic guitar and electric guitar. Tablatures and chords are parodies/interpretations of the original songs. You may use it for private study, scholarship, research or language learning purposes only