>
 >
Time 2

Time 2 Guitar Tabs

*Blink 182* - Time 2 chords, tabs, tablatures, lyrics

Guitar lessons | Add/correct | Request | Top 50 tabs Artists:  A B C D E F G H I J K L M N O P Q R S T U V W X Y Z 0-9

Time 2 Guitar Tabs – *Blink 182*

CD, Sheet music, Poster

Do you like Time 2? Share with your friends now
ChordsTabsTabs v2Tabs v3
All Gtrs. tuned down 1 1/2 steps low to high (Db Gb Cb Fb Ab Db)

Intro
Gtr. 1 & 2                                     
Gb|9-9---7-7---7-7---7--7----|
Db|7-7-0-5-5-0-4-4-0-5--5----|

Double-Time Feel
Gtr. 1 & 2
Gb| |--1-1------|--1-1------|--1-1------|-----------------| |
Cb|.|------4-4--|------4-4--|------4-4--|x-2--x-x--4--x-x-|.|
Gb|.|-----------|-----------|2----------|x-0--x-x--2--x-x-|.|
Db| |0----------|0----------|-----------|-----------------| |

Verse
Gtr. 1 (Rhy. Fig 1)    (End Rhy. Fig 1)
Fb| |9---9---9---9---9---9---9---9--| |
Cb|.|x---x---x---x---x---x---x---x--|.|
Gb|.|7---7---7---7---7---7---7---7--|.|
Db| |-------------------------------| |

Gtr. 1
Fb|9---9---9---9---9---9---9---9--|9---9---9---9---9---9------------|
Cb|x---x---x---x---x---x---x---x--|x---x---x---x---x---x------------|
Gb|7---7---7---7---7---7---7---7--|7---7---7---7---7---7---7-7--7-7-|
Db|-------------------------------|------------------------5-5--5-5-|

Gtr. 2
Fb|9---9---9---9---9---9---9---9--|9---9---9---9---9---9------------|
Cb|9---9---9---9---9---9---7---7--|9---9---9---9---9---9------------|
Gb|7---7---7---7---9---9---7---7--|7---7---7---7---9---9---7-7--7-7-|
Db|-------------------------------|------------------------5-5--5-5-|

Chorus
Gtr. 1 & 2
Cb| |--------------|--------------|--------------|--------------|
Gb|:|2-2--2-2-2--2-|2-2--2-2-2--2-|7-7--7-7-7--7-|7-7--7-7-7--7-|
Db| |0-0--0-0-0--0-|0-0--0-0-0--0-|4-4--4-4-4--4-|4-4--4-4-4--4-|

Cb|--------------|--------------|4-4--4-4-4--4-|4-4--4-4-4--4-| |
Gb|7-7--7-7-7--7-|7-7--7-7-7--7-|2-2--2-2-2--2-|2-2--2-2-2--2-|:|
Db|5-5--5-5-5--5-|5-5--5-5-5--5-|--------------|--------------| |

Repeat Double-Time Feel
Repeat Verse
Repeat Chorus

Interlude
Gtr. 1 & 2  Riff B				                 End Riff B
Gb|--2---------------|----------------|----------------|----------------|
Db|--0---------------|----------------|----------------|----------------|

Gtr. 3 (Clean)	Riff A			          play 3 times (End Riff A)
Cb| |--2---2---2---2-|--2---2---2---2-|--2---2---2---2-|--4---4---4---4-| |
Gb|:|4---4---4---4---|0---0---0---0---|4---4---4---4---|2---2---2---2---|:|
Db| |----------------|----------------|----------------|----------------| |

Cb|--2---2---2---2-|--4---4---4---4-|--2---2---2---2-|--4---4---4---4-|
Gb|2---2---2---2---|2---2---2---2---|2---2---2---2---|2---2---2---2---|
Db|----------------|----------------|----------------|----------------|

Half-Time Feel
Gtr. 1 & 2
   let ring . . . . . . . . .
Cb|2--2----4--4-|--------4--4----4-4--4-4-|
Gb|2--2----2--2-|2--2----2--2----2-2--2-2-|
Db|0--0---------|0--0---------------------|

Chorus
Gtr. 1 & 2
Cb|--------------|--------------|--------------|--------------|
Gb|2-2--2-2-2--2-|2-2--2-2-2--2-|7-7--7-7-7--7-|7-7--7-7-7--7-|
Db|0-0--0-0-0--0-|0-0--0-0-0--0-|4-4--4-4-4--4-|4-4--4-4-4--4-|

Cb|--------------|--------------|4-4--4-4-4--4-|4-4--4-4-4--4-|
Gb|7-7--7-7-7--7-|7-7--7-7-7--7-|2-2--2-2-2--2-|2-2--2-2-2--2-|
Db|5-5--5-5-5--5-|5-5--5-5-5--5-|--------------|--------------|

Cb|--------------|--------------|-----------------|
Gb|2-2--2-2-2--2-|2-2--2-2-2--2-|7-------7--7--7--|
Db|0-0--0-0-0--0-|0-0--0-0-0--0-|4-------4--4--4--|

Cb|--------------|--------------|4-4--4-4-4--4-|4-4--4-4-4--4-|
Gb|7-7--7-7-7--7-|7-7--7-7-7--7-|2-2--2-2-2--2-|2-2--2-2-2--2-|
Db|5-5--5-5-5--5-|5-5--5-5-5--5-|--------------|--------------|

Outro.				
Gtr. 1 & 2					     play 4 times
Cb| |--------------|--------------|4-4--4-4-4--4-|4-4--4-4-4--4-| |  |-----------|
Gb|:|2-2--2-2-2--2-|2-2--2-2-2--2-|2-2--2-2-2--2-|2-2--2-2-2--2-|:|  |2----------|
Db| |0-0--0-0-0--0-|0-0--0-0-0--0-|--------------|--------------| |  |0----------|





Comments


Popular *Blink 182* tabs & chords
Anthem Part Two 4 Bass Tabs
Fentoozler Chords
Every Time I Look For You Drum Tabs
Adams Song 4 Tabs
All The Small Things Live 5 Tabs
Dont Tell Me Its Over 1 Tabs
Dysentery Gary 3 Tabs
The Fallen Interlude 2 Tabs
Track 3 Tabs
What Went Wrong 1 Tabs


Song lyrics



↑ Back to top | Tablatures and chords are parodies/interpretations of the original songs. You may use it for private study, scholarship, research or language learning purposes only
© 2014 AZChords.com Contact us | Privacy policy | DMCA | Add/correct tabs | Request tabs | Top 50 tabs