» » »

The Fallen Tabs (ver.2)

Artists:  A B C D E F G H I J K L M N O P Q R S T U V W X Y Z # 

The Fallen Tabs (ver.2)

*Blink 182*
Rating:
0/5 (0 votes)

Hard to play? Try these video lessons and learn fast.
                (Interlude)
This is an awesome song off of Blink 182’s new self titled
 album that has some cool guitar parts in it to complete the song. 

By the way this is my first tab so if there are any corrections,
 let me know but it sounds pretty close to me.      


Part 1
E -----17~--------15/19---------------------------------------------|
B ----------------------------------------------------17 \----------|
G -------------------------------11h12p11---------------------------|
D ------------------------------------------------------------------|
A ------------------------------------------------------------------|
E ------------------------------------------------------------------|

Part 2
E -----------------------------------|
B ------12--10—8/10---------7/8------|
G ------12--11—9/11---------7/9------|
D -----------------------------------|
A -----------------------------------|
E -----------------------------------|

And that’s all there is to it. Pretty easy.
            
Hard to play? Try these video lessons and learn fast. | Correct




comments powered by Disqus
↑ Back to top | Tablatures and chords are parodies/interpretations of the original songs. You may use it for private study, scholarship, research or language learning purposes only