>
 >
Take Off Your Pants And Jackets 1

Take Off Your Pants And Jackets 1 Bass Tabs

*Blink 182* - Take Off Your Pants And Jackets 1 chords, tabs, tablatures, lyrics

Guitar lessons | Add/correct | Request | Top 50 tabs Artists:  A B C D E F G H I J K L M N O P Q R S T U V W X Y Z 0-9

Take Off Your Pants And Jackets 1 Bass Tabs – *Blink 182*

CD, Sheet music, Poster

Do you like Take Off Your Pants And Jackets 1? Share with your friends now
Bass Tabs
Anthem Part Two


Intro pt. 1(with the drums)
G|--------------------------------------------------||
D|--------------------------------------------------||
A|-3333--------3333--------3333---------------------||
E|--------------------------------------------------||

Intro Pt. 2
G|--------------------------------------------------||
D|------------------------33333333------------------||
A|--55555555--00000000------------------------------||
E|--------------------------------------------------||


intro Pt. 3(5x)
G|--------------------------------------------------||
D|------------------------------------33333333------||
A|-33333333----55555555----00000000-----------------||
E|--------------------------------------------------||

Pre-verse(2x)(second time let 1 on E string ring)
G|--------------------------------------------------||
D|--------------------------------------------------||
A|--333333333--00000--------------------------------||
E|--------------------11111-------------------------||

Verse(4x)
G|--------------------------------------------------||
D|--------------------------------------------------||
A|--333333333--00000--------------------------------||
E|---------------------11111------------------------||

Verse Pt. 2
G|--------------------------------------------------||
D|-----14---------12---------10---------------------||
A|-12------12/10-------10/8-------------------------||
E|--------------------------------------------------||


Verse(4x)
G|--------------------------------------------------||
D|--------------------------------------------------||
A|--333333333--00000--------------------------------||
E|---------------------11111------------------------||

Verse Pt. 2
G|--------------------------------------------------||
D|-----14---------12---------10---------------------||
A|-12------12/10-------10/8-------------------------||
E|--------------------------------------------------||

Chorus(4x)
G|--------------------------------------------------||
D|--------------------------------------------------||
A|-333333333---00000--------------------------------||
E|--------------------11111-------------------------||



Pre-verse(2x)(second time let 1 on E string ring)
G|--------------------------------------------------||
D|--------------------------------------------------||
A|--333333333--00000--------------------------------||
E|--------------------11111-------------------------||

Verse(4x)
G|--------------------------------------------------||
D|--------------------------------------------------||
A|--333333333--00000--------------------------------||
E|---------------------11111------------------------||

Verse Pt. 2
G|--------------------------------------------------||
D|-----14---------12---------10---------------------||
A|-12------12/10-------10/8-------------------------||
E|--------------------------------------------------||

Chorus(4x)
G|--------------------------------------------------||
D|--------------------------------------------------||
A|-333333333---00000--------------------------------||
E|--------------------11111-------------------------||

Bridge Pt. 1(4x)
G|--------------------------------------------------||
D|--------------------------------------------------||
A|-33--3333--33-3333--00-0000-----------------------||
E|-----------------------------11-1111--------------||

Bridge Pt. 2(3x)
G|-----17----17----17-----17------17----------------||
D|--17----17----17----17------17--------------------||
A|--------------------------------------------------||
E|--------------------------------------------------||

Chorus(4x)
G|--------------------------------------------------||
D|--------------------------------------------------||
A|-333333333---00000--------------------------------||
E|--------------------11111-------------------------||

Outro Pt 1(3x)
G|--------------------------------------------------||
D|------------------------------------33333333------||
A|-33333333----55555555----00000000-----------------||
E|--------------------------------------------------||

Outro Pt 2
G|--------------------------------------------------||
D|------------------------------------3```````------||
A|-33333333----55555555----00000000-----------------||
E|--------------------------------------------------||








Online Songs

Intro part 1 (x4)
G|---------------------------------------------------------------------------|
D|--------------------00000000-22222222--------------------------------------|
A|--00000000-22222222--------------------------------------------------------|
E|---------------------------------------------------------------------------|

Intro part 2 (x2) with different strumming
G|---------------------------------------------------------------------------|
D|--------------------00000000-22222222--------------------------------------|
A|--00000000-22222222--------------------------------------------------------|
E|---------------------------------------------------------------------------|

Verse (x2)
G|---------------------------------------------------------------------------|
D|---------------------------------------------------------------------------|
A|--00000000-55555555-9999-7777-00000000-------------------------------------|
E|---------------------------------------------------------------------------|

Intro part 2 (x2)

Verse (x2)

Chorus (x2)
G|---------------------------------------------------------------------------|
D|---------------------------------------------------------------------------|
A|--555555-000000-777777-555555----------------------------------------------|
E|---------------------------------------------------------------------------|

Verse (x2)

Chorus (x4)

Bridge (x2) "Na na na part " 
G|---------------------------------------------------------------------------|
D|---------------------------------------------------------------------------|
A|------55--00000000-77777777------------------------------------------------|
E|--22-----------------------------------------------------------------------|

Bridge part 2 (x2)
G|---------------------------------------------------------------------------|
D|---------------------------------------------------------------------------|
A|-----------55555555-00000000-77777777--------------------------------------|
E|--22222222-----------------------------------------------------------------|

Chorus (x4)

End
G|---------------------------------------------------------------------------|
D|---------------------------------------------------------------------------|
A|-------5-------------------------------------------------------------------|
E|--2222---------------------------------------------------------------------|

First Date

Intro
G------------------------------------
D--------------------33333333-55555555
A-33333333-55555555------------------
E------------------------------------ 

Verse
G-------------------------------
D-------------------------------
A-3333333333333333-0000000------
E--------------------------11111

Pre-Chorus
G------------------
D------------------
A-333-222-0000-----
E--------------11-33

Chorus
G
D-----------------------------------
A-33333333-22222222-00000000
E----------------------------111-333

Interlude 1
G--------------------
D--------------------
A-3------------------3
E--------------------

Then...Interlude 2
G----------------------------------
D---------22222222--3333333-5555555
A-33333333-------------------------
E---------------------------------

Order
Intro x2
Verse x4
Pre-Chorus x2
Chorus x2
Intro x2
Verse x4
Pre-Chorus x2
Chorus x2
Interlude 1 x1 (just listen for the timing you'll know when to come in
Interlude 2 x4
Pre-Chorus x2
Chorus x2
Intro x2

Happy Holidays You Bastard

Riff 1
G:-------------------
D:-------------------
A:-22222222/99999999-
E:-------------------

 Riff 2
G:--------------------------------------
D:--------------------------------------
A:-66666666-77777777-2222-9999-7---9999-
E:--------------------------------------

 Riff 3
G:--------------------
D:--------------------
A:-2222/9999-77777777-
E:--------------------

 
Riff 4
G:---------------------
D:---------------------
A:-2222/9999-7777-9999-
E:---------------------

*ORDER*
Riff 1 x 2
Riff 2 x 1
Riff 3 x 2
Riff 4 x 1
Riff 1 x 2
Riff 2 x 1
Riff 3 x 2
Riff 4 x 1
End With A:-2~---2-

Story Of A Lonely Guy

Riff 1 (Intro&Bridge)
G:-----9-------9--------9---9---9----------------------------------
D:-7-7---7-7-7---7-----------------------11-------11--------7-9-11-
A:------------------7-7---7---7---7--9-9----9-9-9----9--5-5--------
E:-----------------------------------------------------------------

G:-----9-------9--------9---9---9----------------------------------
D:-7-7---7-7-7---7-----------------------11-------11--------7-9-7--
A:------------------7-7---7---7---7--9-9----9-9-9----9--5-5--------
E:-----------------------------------------------------------------

 Riff 2 (Verse)
G:-------------------------------------
D:-------------------------------------
A:-------------------44444444-55555555-
E:-55555555-77777777-------------------

 Riff 3 (Pre-Chorus) {dadada...dadada...}
G:-------------------------------------
D:-------------------------------------
A:-44444444-55555555----------77777777-
E:-------------------55555555----------

 Riff 4 (Chorus)
G:-------------------------------------
D:-------------------------------------
A:----------77777777-99999999-55555555-
E:-55555555----------------------------

 Riff 5 (Interlude Part 1)
G:--------------------------------------------
D:--------------------------------------------
A:-44444444-22222222-(then no bass for a bit)-
E:--------------------------------------------

 Riff 6 (Interlude Part 2)
G:--------------------------------------------------------
D:--------------------------------------------------------
A:-44444444-55555555-77777777-----------44444444-22222222-
E:----------------------------5555-4444-------------------

 
Riff 7 (Last Riff of Song)
G:-------------------------------------------------
D:-------------------------------------------------
A:----------77777777-99999999-555555555555555h7----
E:-55555555-------------------------------------5~-

*ORDER*
Riff 1 x 1
Riff 2 x 4
Riff 3 x 2
Riff 4 x 4
Riff 1 x 1
Riff 2 x 4 
Riff 3 x 2
Riff 4 x 4
Riff 5 x 2
Riff 6 x 1
Riff 4 x 5
Riff 7 x 1

The Rock Show

Intro:
G---------------------------------------
D---------------------------------------
A-0000000000000000---55555555---77777777
E---------------------------------------

Pre-Verse:
G------------------------
D------------------------
A--0000000000000000h5----
E------------------------

Verse:
G---------------------------------------
D---------------------------------------
A--0000000000000000---55555555---7777777  x2
E---------------------------------------

Intro x2

Verse x2

Chorus:
G--------------------------
D--------------------------
A------------555-----------
E--555--222----------------

End of Chorus:
G----------------------------------------------
D----------------------------------------------
A---55555555--------55555555--------55555555---
E-----------55555555--------55555555--------5-4

Verse x2




Bridge: (Black and White...)
E-------------------------------------------------
A-------------------------------------------------
D--999999999999-7777-55555555-000000000000-2222---
G-------------------------------------------------

Bridge cont:
E-------------------------------------------------------
A-------------------------------------------------------
D--999999999999-7777-55555555-000000000000-2222-5555----
G-------------------------------------------------------

Chorus x2

End of Chorus x2

Intro x6

Stay together For The Kids

Intro:
Play after guitar intro

G
D
A  5 4 2 0 2 5
E

Verse:

G
D
A  555 555 555 555
E                   777 777 777 777 555 555 555 555 555 555 555 555
Play twice

Chorus:

G
D
A
E  33333333333333332222222222222202
Play 4 times

Intro:
Repeat

Verse:
Repeat

Chorus:
Repeat

Bridge
G
D
A  5
E     3  5
Play 4 times
End:
Just keep playing the chorus till the song finishes
Roller Coaster

Intro (x1)
G|---------------------------------------------------------------------------|
D|---------------------------------------------------------------------------|
A|--00000000-55555555-0 let ring---------------------------------------------|
E|---------------------------------------------------------------------------|

Break

Come in on "Roller coaster, favorite ride..."
G|---------------------------------------------------------------------------|
D|---------------------------------------------------------------------------|
A|--0000000000000000-55555555-22225------------------------------------------|
E|---------------------------------------------------------------------------|

Pre Verse (x2)
G|---------------------------------------------------------------------------|
D|---------------------------------------------------------------------------|
A|--0000000000000000-77777777-55555555---------------------------------------|
E|---------------------------------------------------------------------------|

Verse (x4)
G|---------------------------------------------------------------------------|
D|---------------------------------------------------------------------------|
A|--00000000-55555555-22222222-55555555--------------------------------------|
E|---------------------------------------------------------------------------|

Pre verse (x1)

Verse (x4)

Break

After the DJ starts, wait a little and then play:	(x2)
G|---------------------------------------------------------------------------|
D|---------------------------------------------------------------------------|
A|--0000000000000000----------55555555---------------------------------------|
E|-------------------00000000------------------------------------------------|

Verse (x4)

Ending (x2) then repeat intro
G|---------------------------------------------------------------------------|
D|---------------------------------------------------------------------------|
A|--0000000000000000-55555555-22225555---------------------------------------|
E|---------------------------------------------------------------------------|

8 down, 7 more to go. Enjoy.

Reckless Abandond 

Intro (x4)
Bass comes in at 0:18
G|---------------------------------------------------------------------------|
D|---------------------------------------------------------------------------|
A|--22222222-----------------------------------------------------------------|
E|-----------00000000-44444444-22222222--------------------------------------|

Verse (x2)  2nd time stop about halfway through E-2-
G|---------------------------------------------------------------------------|
D|---------------------------------------------------------------------------|
A|--22222222222222222222222222222222-----------------------------------------|
E|-----------------------------------22222222222222222222222222222222--------|

Chorus
G|---------------------------------------------------------------------------|
D|---------------------------------------------------------------------------|
A|--2222-xxxx-2222-xxxx-2222-xxxx-2222-4444----------------------------------|
E|---------------------------------------------------------------------------|





G|---------------------------------------------------------------------------|
D|--2222-xxxx-2222-xxxx-2222-xxxx-2222-4444----------------------------------|
A|---------------------------------------------------------------------------|
E|---------------------------------------------------------------------------|

G|---------------------------------------------------------------------------|
D|---------------------------------------------------------------------------|
A|---------------------------------------------------------------------------|
E|--44444444-22222222-0000000000000000--44444444-22222222-0------------------|

Intro (x4)

Verse (x2)

Chorus (x1)

Bridge
G|---------------------------------------------------------------------------|
D|---------------------------------------------------------------------------|
A|--2-----------2-----------2-----------2-----------2 let ring---------------|
E|-----0--4--2-----0--4--2-----0--4--2-----0--4--2---------------------------|

Break

Chorus (x1) End on A-2-

Everytime I Look For You

Intro
          G|---------------------------------------------------------------------------|4x
          D|---------------------------------------------------------------------------|
          A|-2-4-7-2-------------------------------------------------------------------|
          E|---------------------------------------------------------------------------|
          
          Leading into the verse
          G|---------------------------------------------------------------------------|
          D|---------------------------------------------------------------------------|
          A|-2222-9999-7777-4444-------------------------------------------------------|
          E|---------------------------------------------------------------------------|
          
          Verse
          G|---------------------------------------------------------------------------|
          D|---------------------------------------------------------------------------|
          A|-2222222-4444-7777---------------------------------------------------------|
          E|---------------------------------------------------------------------------|
          
          Leading into the Chorus
          G|---------------------------------------------------------------------------|
          D|---------------------------------------------------------------------------|
          A|-2-4-7-2-------------------------------------------------------------------|
          E|---------------------------------------------------------------------------|
          
          Chorus
          G|---------------------------------------------------------------------------|
          D|---------------------------------------------------------------------------|
          A|---------------------------------------------------------------------------|
          E|-44444444-0000-7777--------------------------------------------------------|
          
          Interlude
          G|---------------------------------------------------------------------------|
          D|---------------------------------------------------------------------------|
          A|-22222222-99999999-7777777777777777----------------------------------------|
          E|---------------------------------------------------------------------------|

Give Me One Good Reason

Just guitar intro

Verse part 1  ("Mom and Dad they quite don't understand it...")
G|---------------------------------------------------------------------------|
D|---------------------------------------------------------------------------|
A|----------22222-------------22222------------------------------------------|
E|-00000--------------00000--------------------------------------------------|





Verse part 2 ("Why do girls wanna peirce their nose...")
G|---------------------------------------------------------------------------|
D|---------------------------------------------------------------------------|
A|-44444----00000----44444----22222------------------------------------------|
E|---------------------------------------------------------------------------|

"Oh yeah..." (x2)
G|---------------------------------------------------------------------------|
D|---------------------------------------------------------------------------|
A|---------(Brief pause)---222222--------------------------------------------|
E|-000000--------------------------------------------------------------------|

back to verse parts 1 and 2 (x1) and interlude (x2)

Chorus (x2)
G|---------------------------------------------------------------------------|
D|---------------------------------------------------------------------------|
A|-------------------22222222222/8-----------------------22222222-00000000---|
E|-00000000-44444444-------------------00000000-44444444---------------------|

Return to intro, this time play:
G|---------------------------------------------------------------------------|
D|---------------------------------------------------------------------------|
A|----------22222222----------22222222--44444444-00000000--44444444-22222222-|
E|-00000000----------00000000------------------------------------------------|

back to verse parts 1 and 2 (x1) and interlude (x4) then chorus (x2)

Bridge (x2)					play on 2nd time
G|--------------------------------------*------------------------------------|
D|--------------------------------------*------------------------------------|
A|-44444444-00000000--44444444-22222222-*--00000000--------------------------|
E|--------------------------------------*------------0ring-------------------|

rest for drum solo, then chorus (x2) End on E

Shut Up

Bass comes in at 0:02

Intro (x4)
G|---------------------------------------------------------------------------|
D|---------------------------------------------------------------------------|
A|--00000000-4444-5555-------------------------------------------------------|
E|---------------------------------------------------------------------------|

Verse (x4)
G|---------------------------------------------------------------------------|
D|---------------------------------------------------------------------------|
A|--00000000-4444-5555-------------------------------------------------------|
E|---------------------------------------------------------------------------|

Break

Intro (x2)

Verse (x4)

Chorus part 1 (x2)
G|---------------------------------------------------------------------------|
D|--------------------------77777777-----------------------------------------|
A|--55555555-pause-00000000--------------------------------------------------|
E|---------------------------------------------------------------------------|

Chorus part 2 "I'm not coming home"
G|---------------------------------------------------------------------------|
D|---------------------------------------------------------------------------|
A|--22222222-55555555--22222222-55555555-------------------------------------|
E|---------------------------------------------------------------------------|

Verse (x4)

Chorus part 1 (x2) part 2 (x1)

Bridge (slow part) (x6)
G|---------------------------------------------------------------------------|
D|-----2-----2------4-------2------------------------------------------------|
A|--22---222---2/44---4--00---0----------------------------------------------|
E|---------------------------------------------------------------------------|

Bridge (faster part) (x4)
G|---------------------------------------------------------------------------|
D|---------------------------------------------------------------------------|
A|--00000000-4444-5555-------------------------------------------------------|
E|---------------------------------------------------------------------------|

Chorus part 1 (x2) part 2 (x1)

Verse (x4) End on A--0

Please Take ME Home

Come in after guitar intro

Verse (x2)
G|---------------------------------------------------------------------------|
D|---------------------------------------------------------------------------|
A|--22222222-44444444--------------------22222222-44444444----------77777777-|
E|--------------------44444444-00000000--------------------44444444----------|

Pre chorus (x1)
G|---------------------------------------------------------------------------|
D|---------------------------------------------------------------------------|
A|--22---22------------------------------------------------------------------|
E|------------44---22---0000000000000000-22222222-0 ring---------------------|

Chorus (x2)
G|---------------------------------------------------------------------------|
D|---------------------------------------------------------------------------|
A|--22222222-11111111--------------------------------------------------------|
E|--------------------44444444-00000000--------------------------------------|

Verse (x2)

Pre chorus (x1)

Chorus (x4)

Bridge
G|---------------------------------------------------------------------------|
D|---------------------------------------------------------------------------|
A|--22---22---22---22---22---22---22---22------------------------------------|
E|---------------------------------------------------------------------------|

(x4)
G|---------------------------------------------------------------------------|
D|---------------------------------------------------------------------------|
A|--22222222-44444444-66666666-77777777--------------------------------------|
E|---------------------------------------------------------------------------|

G|---------------------------------------------------------------------------|
D|---------------------------------------------------------------------------|
A|--2222-1111------------2222-1111-------------------------------------------|
E|------------4444-0000------------4444-0000-0000000000000000----------------|

Chorus (x4)





Comments


Popular *Blink 182* tabs & chords
Anthem Part 2 Bass Tabs
Anthem Part Two 3 Bass Tabs
Feeling This Chords
Aliens Exist 6 Tabs
Ben Wah Balls 1 Tabs
Shut Up Intro Tabs
Stay Together For The Kids Intro Tabs
Toms Song Tabs
Untitled Tabs
Waggy Tabs


Song lyrics



↑ Back to top | Tablatures and chords are parodies/interpretations of the original songs. You may use it for private study, scholarship, research or language learning purposes only
© 2014 AZChords.com Contact us | Privacy policy | DMCA | Add/correct tabs | Request tabs | Top 50 tabs