>
 >
Take Off Your Pants And Jacket

Take Off Your Pants And Jacket Guitar Tabs

*Blink 182* - Take Off Your Pants And Jacket chords, tabs, tablatures, lyrics

Guitar lessons | Add/correct | Request | Top 50 tabs Artists:  A B C D E F G H I J K L M N O P Q R S T U V W X Y Z 0-9

Take Off Your Pants And Jacket Guitar Tabs – *Blink 182*

CD, Sheet music, Poster

Do you like Take Off Your Pants And Jacket? Share with your friends now
Tabs
Blink 182                       +
"Take Off Your Pants and Jacket"+
+++++++++++++++++++++++++++++++++
Here's the entire Album, all 100% correct and 100% accurate, if you
don't believe me, try every song out for yourself.
++++++++++++++++++++++++++++++++++++++++++++++++++++++++++++++++++++
1) ANTHEM PART 2
(Arranged for 1 guitar)

Intro Part 1/Outro Part 2
e--3---3---1---1---0---0---1---1-------
B----1---1---1---1---1---1---1---1-----
G--------------------------------------
D--------------------------------------
A--------------------------------------
E--------------------------------------

Intro Part 2/Outro Part 1
e------------------------------+-------------------------
B------------------------------+-------------------------
G------------------------------+-------------------------
D----------2-3---------2-------+----------0---------0----
A--(3)-(3)-----(3)-(3)-----(x3)+--(3)-(3)---(3)-(3)------
E------------------------------+-------------------------

Pre-Chorus
e------------------------+----------------
B------------------------+----------------
G--9-10-10-7-5-5-5-7-----+--9-9-9-9-10-5--
D--x-x--x--x-x-x-x-x-(x3)+--x-x-x-x-x--x--
A--7-8--8--9-3-3-3-5-----+--7-7-7-7-8--3--
E------------------------+----------------

Verse      + (x2) (Palm Muted)
e----------+-------------------------
B----------+-------------------------
G--9-9-9-9-+--5----------------------
D--x-x-x-x-+--5-(x16)-7------3-------
A--7-7-7-7-+--3-------7-(x8)-3-(x8)--
E----------+----------5------1-------

Chorus Part 1 (x3)
e-------------------------------------------------------------
B-------------------------------------------------------------
G--9--9--9--9--10-10-10-10--5-5-5-5-5-5-5-5-------------------
D-10-10-10-10--10-10-10-10--5-5-5-5-5-5-5-5--5-5-5-5-5-5-5-5--
A--7--7--7--7---8--8--8--8--3-3-3-3-3-3-3-3--5-5-5-5-5-5-5-5--
E--------------------------------------------3-3-3-3-3-3-3-3--

Chorus Part 2 ("If we're fucked up you're to blame")
e----------------------
B----------------------
G----------------------
D--7-7-7-7-7-7-7-7--3--
A--7-7-7-7-7-7-7-7--3--
E--5-5-5-5-5-5-5-5--1--

++++++++++++++++++++++++++++++++++++++++++++++++++++++++++++++++++++++
2) ONLINE SONGS

Main Riff
e----------------------------+-----------------------
B----------------------------+-----------------------
G----------------------------+--------------7-7-7-7--
D--------2-------------------+--------2-----7-7-7-7--
A--0-4-0---4-0-5-0-5-0-5-(x3)+--0-4-0---4---5-5-5-5--
E----------------------------+-----------------------

Chorus ("Please don't remind me..)
e------------------------------------------
B------------------------------------------
G--7-7-7777------------9-9-9999--7-7-7777--
D--7-7-7777--7-7-7777--9-9-9999--7-7-7777--
A--5-5-5555--7-7-7777--7-7-7777--5-5-5555--
E------------5-5-5555----------------------

Bridge (x4) ("She said na na...")
e----------------------------------------------
B----------------------------------------------
G-----------7-7-7-7-----------9-9-9-9-9-9-9-9--
D--4-4-4-4--7-7-7-7--7-7-7-7--9-9-9-9-9-9-9-9--
A--4-4-4-4--5-5-5-5--7-7-7-7--7-7-7-7-7-7-7-7--
E--2-2-2-2-----------5-5-5-5-------------------

++++++++++++++++++++++++++++++++++++++++++++++++++++++++++++++++++++++
3) FIRST DATE

Intro/Outro
e--0-------------------------------------------
B----1---1---3--1---1---3--1---1---3--1---0----
G------0---0------0---0------0---0------0---0--
D----------------------------------------------
A----------------------------------------------
E----------------------------------------------

Verse (Palm Muted)
e---------
B---------
G--5-5-5--
D--5-5-5--
A--3-3-3--
E---------

Chorus (x4) ("Let's go...")
e--------------------------
B--------------------------
G--5555-4444---------------
D--5555-5555-7-7-7-7-33-5--
A--3333-2222-7-7-5-7-33-5--
E------------5-5-5-5-11-3--

Bridge (x2) (Palm Muted)
e---------------------------------
B---------------------------------
G--55555555-----------------------
D--55555555-222222-333333-555555--
A--33333333-222222-333333-555555--
E-----------000000-111111-333333--

Solo (x4)
e---------------------------------------
B---------------------------------------
G--5555555-999-555-101010-555-77777777--
D--xxxxxxx-xxx-xxx--x-x-x-xxx-xxxxxxxx--
A--3333333-777-333--8-8-8-333-55555555--
E---------------------------------------

++++++++++++++++++++++++++++++++++++++++++++++++++++++++++++++++++++++
4) HAPPY HOLIDAYS YOU BASTARD

Verse (x2) ("It's Christmas eve/It's Labor Day..")
e--------------------
B--------------------
G--44444444----------
D--44444444--444444--
A--22222222--444444--
E------------222222--

Pre-Chorus ("And I hate, hate.../And he shit, shit...")
e------------
B------------
G------------
D--666--222--
A--666--222--
E--444--000--


Chorus (x4) ("And I'll never talk to you again")
e------------------------
B------------------------
G--4444------------------
D--4444--4444--22222222--
A--2222--4444--22222222--
E--------2222--00000000--

++++++++++++++++++++++++++++++++++++++++++++++++++++++++++++++++++++++
5) STORY OF A LONELY GUY

Intro (Without effects pedal)
e---------------------------------------
B---------------------------------------
G---------------------------------------
D------777-99999999------777-999-77777--
A--777---------------777----------------
E---------------------------------------

Verse (x4) (Palm Muted)
e---------------------------------------
B---------------------------------------
G--------------------66666666-77777777--
D--77777777-99999999-66666666-77777777--
A--77777777-99999999-44444444-55555555--
E--55555555-77777777--------------------

Pre-Chorus (x2) ("Da da, Da da...I/Who fell behind?")
e--------------------------------------------------
B--------------------------------------------------
G--------------------------------------------------
D-----7-----7-----7-----7-----7-----7-----7-----7--
A--44---444---455---555---500---000---077---777----
E--------------------------------------------------

Chorus (x4) ("She makes me feel...")
e---------------------------------------
B---------------------------------------
G-----------99999999----------77777777--
D--77777777-99999999-44444444-77777777--
A--77777777-77777777-44444444-55555555--
E--55555555----------22222222-----------

Solo Part 1 (x2)
e--------------------------------------------
B--------------------------------------------
G--------------------------9999999999999999--
D-----7-----7-----7-----7--9999999999999999--
A--44---444---455---555----7777777777777777--
E--------------------------------------------

Solo Part 2
e--------------------------------------------------
B--------------------------------------------------
G--------------------------------------------------
D-----7-----7-----7-----7-----7-----7-----7-----7--
A--44---444---455---555---577---777---777---777----
E--------------------------------------------------

Solo Part 3
e--------------------------
B--------------------------
G--------------------------
D-----7-----7-----7-----7--
A--44---444---455---555----
E--------------------------

++++++++++++++++++++++++++++++++++++++++++++++++++++++++++++++++++++++
6) THE ROCK SHOW

Intro/Outro
e-------------------------------------------
B-------------------------------------------
G-------------------------------------------
D-------2--0-----------------2--0--2p0------
A--0000------4p0-4p0----0000-----------4p0--
E-------------------------------------------

Verse 1 & 3
e--------------------------------------
B--------------------------------------
G-------------------7xxxxxxx-9xxxxxxx--
D--7xxxxxxxxxxxxxxx-7xxxxxxx-9xxxxxxx--
A--7xxxxxxxxxxxxxxx-5xxxxxxx-7xxxxxxx--
E--5xxxxxxxxxxxxxxx--------------------

Chorus ("Fell in love..") + (Everythings better..") +
e-------------------------+-------------------------+-------
B-------------------------+-------------------------+-------
G--------------7-7--------+--99999999-77777777------+--7-7--
D---------4-4--7-7--(x3)--+--99999999-77777777-(x3)-+--7-7--
A--7-7-7--4-4--5-5--------+--77777777-55555555------+--5-5--
E--5-5-5--2-2-------------+-------------------------+-------

Solo    
e-------+---------------------+---------
B--2----+--2---3---2----------+--2---3--
G----2--+----2---2---2--(x3)--+----2----
D-------+---------------------+---------
A-------+---------------------+---------
E-------+---------------------+---------

Post-Solo Bridge
e------------------------------------------
B------------------------------------------
G------------77777777------------9-9--7-7--
D--44444444--77777777--77777777--9-9--7-7--
A--44444444--55555555--77777777--7-7--5-5--
E--22222222------------55555555------------

++++++++++++++++++++++++++++++++++++++++++++++++++++++++++++++++++++++
7) STAY TOGETHER FOR THE KIDS

Intro
e----------------------+----------------------
B----------------------+----------------------
G----------------------+----------------------
D----0---7---0--4--0---+----0---7---0--4--0---
A--5---5---5-----------+--4---4---4-----------
E----------------------+----------------------

e----------------------+------------------------
B----------------------+------------------------
G----------------------+------------------------
D----0---4---0--4--0---+----2---4--5--4--2--0---
A--2---2---2-----------+--0---0-----------------
E----------------------+------------------------

Verse (x2)
e-------------+-------------+-------------+-------------+-------------
B-------------+-------------+-------------+-------------+-------------
G------7------+------7------+------7------+------9------+------7------
D------7-(x4)-+------7------+------7-(x4)-+------7-(x2)-+------7-(x2)-
A--5-5--------+--------(x4)-+--0-0--------+--0-0--------+--0-0--------
E-------------+--7-7--------+-------------+-------------+-------------

Chorus (x4) ("So here's your holiday...")
e-------------------------------------
B-------------------------------------
G-------------------------------------
D--5555555555555555-4444444444444444--
A--5555555555555555-5555555555555555--
E--3333333333333333-2222222222222222--

++++++++++++++++++++++++++++++++++++++++++++++++++++++++++++++++++++++
8) ROLLER COASTER

Intro/Outro
e----------------------------------------
B----------------------------------------
G--6---6--7--6--------6---6--7--6--------
D----7---------7---7----7---------7---7--
A----------------0------------------0----
E----------------------------------------

Chorus 1 & 2 ("Breathing deeply, walking backwards...")
e-------------+-------------+-------------+-------------
B-------------+-------------+-------------+-------------
G-------------+-------------+-------------+-------------
D------7------+------7------+------7------+------7------
A--0-0---(x8)-+--5-5---(x4)-+--------(x2)-+--5-5---(x2)-
E-------------+-------------+--7-7--------+-------------

Pre-Verse Riff
e----------------------------------------
B----------------------------------------
G----------------------------------------
D----------------------------------------
A--4---4--5--4---0----4---4--5--4---0----
E----5---------5---5----5---------5---5--

Verse (x4)
e--------------------------
B--------------------------
G--------7777--------7777--
D--7777--7777--9999--7777--
A--7777--5555--9999--5555--
E--5555--------7777--------

Chorus 3 (x2) ("And now I'm breathing deeply...")
e------------------------------------------
B------------------------------------------
G--------------------77777777--------7777--
D--7777777777777777--77777777--9999--7777--
A--7777777777777777--55555555--9999--5555--
E--5555555555555555------------7777--------

++++++++++++++++++++++++++++++++++++++++++++++++++++++++++++++++++++++
9) RECKLESS ABANDON

Intro
e--------------------------------------------
B--------------------------------------------
G--44444444----------------------------------
D--44444444--22222222--6666--4444--22222222--
A--22222222--22222222--6666--4444--22222222--
E------------00000000--4444--2222--00000000--

Main Riff
e-----------------+--------------
B-----------------+--------------
G-----------------+--------------
D--1---4--2-------+--1---1--2----
A----2-------(x3)-+----2------4--
E-----------------+--------------

Verse (x2)
e--------------------------------------
B--------------------------------------
G--4444444444444444--------------------
D--4444444444444444--4444444444444444--
A--2222222222222222--4444444444444444--
E--------------------2222222222222222--

Chorus Part 1
e--------------------------------------------
B--------------------------------------------
G--44444444----------------------------------
D--44444444--22222222--6666--4444--22222222--
A--22222222--22222222--6666--4444--22222222--
E------------00000000--4444--2222--00000000--

Chorus Part 2
e-----------------
B-----------------
G-----------------
D--6666--4444--2--
A--6666--4444--2--
E--4444--2222--0--

Bridge (x4)
e--------------
B--------------
G--4-----------
D--4--2--6--4--
A--2--2--6--4--
E-----0--4--2--

++++++++++++++++++++++++++++++++++++++++++++++++++++++++++++++++++++++
10) EVERYTIME I LOOK FOR YOU

Intro ("Never found out why you left him...")
e--------------------------------------
B--------------------------------------
G--44-44-4444-44-4444-44-4444-44-4444--
D--xx-xx-xxxx-xx-xxxx-xx-xxxx-xx-xxxx--
A--22-22-2222-22-2222-22-2222-22-2222--
E--------------------------------------

Pre-Verse (x2)
e-----------------------------------------
B--4--0--5--4--0--5--4--0--5--4--0--2--4--
G-----------------------------------------
D-----------------------------------------
A-----------------------------------------
E-----------------------------------------

Pre-Chorus (x2)
e-----------------------------------------
B--4--0--2--4--0--2--4--0--2--4--0--2--4--
G-----------------------------------------
D-----------------------------------------
A-----------------------------------------
E-----------------------------------------

Chorus Part 1 ("Everytime I look for you...")
e--------------------------------------
B--------------------------------------
G--44-44-4444-44-4444-44-4444-44-4444--
D--xx-xx-xxxx-xx-xxxx-xx-xxxx-xx-xxxx--
A--22-22-2222-22-2222-22-2222-22-2222--
E--------------------------------------

Chorus Part 2 ("Will the last one out please shut the door.")
e------------
B------------
G------------
D--22222222--
A--22222222--
E--00000000--

Solo (x6)
e------------------------------
B------------------------------
G--4-------8------11--6--------
D--x-(x16)-x-(x8)--x--x-(x32)--
A--2-------6-------9--4--------
E------------------------------

++++++++++++++++++++++++++++++++++++++++++++++++++++++++++++++++++++++
11) GIVE ME ONE GOOD REASON

Intro Part 1
e------------------------------------
B------------------------------------
G------1---1-------------------------
D----2-------2----4--2---4--2--(x2)--
A--2-----2------2------2-------------
E------------------------------------

Intro Part 2
e--------------------------------------------------2-2-2-2--
B-----------------------------------------------------------
G----------------------------------------------1------------
D----6------6------2--2---2----6------6------2--------------
A--4---7--4---7--0------0----4---7--4---7--2----------------
E-----------------------------------------------------------

Verse (Palm Muted)
e---------------------------------------------------
B---------------------------------------------------
G--------44444-------44444-66666-22222-66666-44444--
D--22222-44444-22222-44444-66666-22222-66666-44444--
A--22222-22222-22222-22222-44444-00000-44444-22222--
E--00000-------00000--------------------------------

Fill Riff ("Oh Yeah!!")
e------------------------
B------------------------
G-----------1------------
D--2-2-2-2----x-x-1h2-2--
A--2-2-2-2---------------
E--0-0-0-0---------------

Chorus Parts 1 & 3 ("So give me.../Kids will...")
e--------------------------------------
B--------------------------------------
G--------------------4444444444444444--
D--22222222-66666666-4444444444444444--
A--22222222-66666666-2222222222222222--
E--00000000-44444444-------------------

Chorus Parts 2 & 4 ("Why we.../They dont...")
e---------------------------------------
B---------------------------------------
G--------------------44444444-22222222--
D--22222222-66666666-44444444-22222222--
A--22222222-66666666-22222222-00000000--
E--00000000-44444444--------------------

Solo Parts 1 & 3
e--------------------------------------------------------
B--------------------------------------------------------
G--999-11-11-11-13-13-13-14-14-14-13-11-9-9-9---9-9-9----
D--xxx--x--x--x--x--x--x--x--x--x--x--x-x-x-x-9-x-x-x-9--
A--777--9--9--9-11-11-11-12-12-12-11--9-7-7-7-x-7-7-7-x--
E---------------------------------------------7-------7--

Solo Parts 2 & 4
e-----------------------------------------------------------
B-----------------------------------------------------------
G--999-11-11-11-13-13-13-14-14-14-13-11-11-11-11-11-13-9-9--
D--xxx--x--x--x--x--x--x--x--x--x--x--x--x--x--x--x--x-x-x--
A--777--9--9--9-11-11-11-12-12-12-11--9--9--9--9--9-11-7-7--
E-----------------------------------------------------------

Solo Parts 2 & 4 continued + Part 4 Ending
e--------------------------+-------
B--------------------------+-------
G--11-11-11-11-11-13-9-9---+--8-9--
D---x--x--x--x--x--x-x-x---+--x-x--
A---9--9--9--9--9-11-7-7---+--6-7--
E--------------------------+-------

++++++++++++++++++++++++++++++++++++++++++++++++++++++++++++++++++++++
12) SHUT UP

Intro
e------------
B------------
G--22222222--
D------------
A------------
E------------

Fill Riff/Outro
e------0-------0-------0-------0----
B-----------------------------------
G----2---2---2---2---2---2---2---2--
D--------------------------0--------
A--0-------0-------4----------------
E-----------------------------------

Chorus Part 1 (x2) ("I'll never ask permission...")
e----------------------------
B----------------1010101010--
G--77777----------9-9-9-9-9--
D--77777--77777---7-7-7-7-7--
A--55555--77777--------------
E---------55555--------------

Chorus Part 2 (x2) ("I'm not coming home...")
e---------------------
B---------------------
G--44444444-77777777--
D--44444444-77777777--
A--22222222-55555555--
E---------------------

Verse 3 (x4) ("I got too fucked up again...")
e--------------------------------------
B--------------------------------------
G-------------------66666666-77777777--
D--7777777777777777-66666666-77777777--
A--7777777777777777-44444444-55555555--
E--5555555555555555--------------------

Bridge
e---------------------------------------
B---------------------------------------
G--9-9-9-9-9-9-9-9-11-11-11-11-7-7-7-7--
D--9-9-9-9-9-9-9-9-11-11-11-11-7-7-7-7--
A--7-7-7-7-7-7-7-7--9--9--9--9-5-5-5-5--
E---------------------------------------

Solo Part 1
e------------------------------------------------
B------------------------------------------------
G------------------------------------------------
D--7-(x16)-6-(x8)-4-(x8)-11-(x16)-9-(x8)-7-(x8)--
A------------------------------------------------
E------------------------------------------------

Solo Part 2
e--------------------------------------------------
B--------------------------------------------------
G--------------------------------------------------
D--7-(x16)-6-(x8)-4-(x8)-11-(x16)-9-(x8)-12-(x16)--
A--------------------------------------------------
E--------------------------------------------------

++++++++++++++++++++++++++++++++++++++++++++++++++++++++++++++++++++++
13) PLEASE TAKE ME HOME

Intro (x2)
e---------------------------
B---------------------------
G--4-888888888888888--------
D--x-999999999999999-99999--
A--2-666666666666666-99999--
E--------------------77777--

Verse (x4) (Palm Muted)
e---------------------------------------
B---------------------------------------
G--44444444-66666666--------------------
D--44444444-66666666-66666666-22222222--
A--22222222-44444444-66666666-22222222--
E--------------------44444444-00000000--

Pre-Chorus ("She's unstoppable...")
e----------------------------------------------
B----------------------------------------------
G--------44444---------------------------------
D--22222-44444-66666-44444-2222222222222222-4--
A--22222-22222-66666-44444-2222222222222222-4--
E--00000-------44444-22222-0000000000000000-2--

Chorus ("Please take, me home...")
e-------------------------------------------
B-------------------------------------------
G--4444-3333-----------4444-3333------------
D--4444-3333-6666-2222-4444-3333-6666-2222--
A--2222-1111-6666-2222-2222-1111-6666-2222--
E------------4444-0000-----------4444-0000--

Bridge Part 1 (x4) ("Why did we have to go date...")
e----------------------
B----------------------
G----------------------
D--4-4--6-6--8-8--9-9--
A--2-2--4-4--6-6--7-7--
E----------------------

Bridge Part 2 (x2) (Palm Muted) ("Be strong...")
e---------------------------------------
B---------------------------------------
G--44444444-66666666-88888888-99999999--
D--44444444-66666666-88888888-99999999--
A--22222222-44444444-66666666-77777777--
E---------------------------------------

Solo Part 1 (x2)
e---------------------------------------
B---------------------------------------
G--44444444-33333333-888888888-666-4-6--
D--xxxxxxxx-xxxxxxxx-xxxxxxxxx-xxx-x-x--
A--22222222-11111111-666666666-444-2-4--
E---------------------------------------

Solo Part 2 (x2)
e--------------------------------
B--------------------------------
G--88-888-88-888-88-888-4-44444--
D--xx-xxx-xx-xxx-xx-xxx-x-xxxxx--
A--66-666-66-666-66-666-2-22222--
E--------------------------------

++++++++++++++++++++++++++++++++++++++++++++++++++++++++++++++++++++++
+              +
+ Bonus Tracks +
+              +
++++++++++++++++
14) LET HER GO (Travis's Red CD)

Intro
e------------------
B------------------
G------------------
D--66-444-444-6-6--
A--66-444-444-6-6--
E--44-222-111-4-4--

Fill Riff
e--------------------------------------------
B--------------------------------------------
G--------------------------------------------
D------3-3-1-1-----3-3-1-1-----3-3-1---4--6--
A--4-4---------4-4---------------------4--6--
E--------------------------4-4---------2--4--

Verse Part 1
e-----------------------------------
B-----------------------------------
G--6-6-6-6-6-6-6-6-6-6-6-6-6-6-6-6--
D--x-x-x-x-x-x-x-x-x-x-x-x-x-x-x-x--
A--4-4-4-4-4-4-4-4-4-4-4-4-4-4-4-4--
E-----------------------------------

Verse Part 2 (x2)
e-------------------
B-------------------
G--6-6-6-6-6-6-6-6--
D--6-6-6-6-6-6-6-6--
A--4-4-4-4-6-6-4-4--
E-------------------

Chorus (x2) ("Time to wake up...")
e---------------------------------------
B---------------------------------------
G--66666666-----------------------------
D--66666666-44444444-44444444-66666666--
A--44444444-44444444-44444444-66666666--
E-----------11111111-22222222-44444444--

Solo Part 1 (x3)
e-------------------------------------------------------------------
B-------------------------------------------------------------------
G-------------------------------------------------------------------
D-------------------------------------------------------------------
A----4---4---4---4---4---4---4---4---4---4---4---4---6---6---6---6--
E--6---6---6---6---2---2---2---2---6---6---6---6---4---4---4---4----

Solo Part 2
e-------------------------------------------------------------------
B-------------------------------------------------------------------
G-------------------------------------------------------------------
D-------------------------------------------------------------------
A----4---4---4---4---6---6---6---6---4---4---4---4---6---6---6---6--
E--4---4---4---4---4---4---4---4---4---4---4---4---4---4---4---4----

Post-Solo
e-----------------------------
B-----------------------------
G--6-6-------6-6--------------
D--6-6--6-6--6-6--6-6--66-66--
A--4-4--6-6--4-4--6-6--66-66--
E-------4-4-------4-4--44-44--

Ending Riff (x4)
e-------------------------------------
B-------------------------------------
G--6666666666666666-------------------
D--6666666666666666-6666666666666666--
A--4444444444444444-6666666666666666--
E-------------------4444444444444444--

++++++++++++++++++++++++++++++++++++++++++++++++++++++++++++++++++++++
14) WHAT WENT WRONG (Tom's Yellow CD)

Intro
e--------------------
B--------------------
G-----4--2-----4--2--
D--2--------2--------
A--------------------
E--------------------

Fill Riff (x2)
e--------------------------------------
B--------------------------------------
G----------------------------77777777--
D--7777777777777777-44444444-77777777--
A--7777777777777777-44444444-55555555--
E--5555555555555555-22222222-----------

Verse (x2)
e---------------------------------------
B---------------------------------------
G--------------------99999999-77777777--
D--77777777-44444444-99999999-77777777--
A--77777777-44444444-77777777-55555555--
E--55555555-22222222--------------------

Chorus (x2) ("I can't forgive...")
e---------------------------------------
B---------------------------------------
G-----------------------------77777777--
D--77777777-77777777-44444444-77777777--
A--77777777-77777777-44444444-55555555--
E--55555555-44444444-22222222-----------

Solo Part 1
e------0---------------0----------------0---------------0------------
B--------------2---------------2----------------2---------------2----
G----2---2---2---2---2---2---2---2----2---2---2---2---2---2---2---2--
D-----------------------------------0-------0-------0-------0--------
A--------------------------------------------------------------------
E--2-------2-------2-------2-----------------------------------------

Solo Part 2
e------0---------------0-----------------------------------------
B--------------2---------------2--------2-----2------------------
G----2---2---2---2---2---2---2---2----2-----2-----2---2222-2222--
D-----------------------------------0-----0-----0-----0000-0000--
A--0-------0-------2-------2-------------------------------------
E----------------------------------------------------------------

Post Solo Part 1 (x2)
e--------------------------------------
B--------------------------------------
G-----------77777777-------------------
D--44444444-77777777-7777777777777777--
A--44444444-55555555-7777777777777777--
E--22222222----------5555555555555555--

Post Solo Part 2
e---------------------
B---------------------
G--99999999-77777777--
D--99999999-77777777--
A--77777777-55555555--
E---------------------

Ending Riff ("I'm kicking...")
e--------------------------------------
B--------------------------------------
G----------------------------77777777--
D--7777777777777777-44444444-77777777--
A--7777777777777777-44444444-55555555--
E--5555555555555555-22222222-----------

++++++++++++++++++++++++++++++++++++++++++++++++++++++++++++++++++++++
14) HOLD ON (Mark's Green CD)

Intro ("I hear the phone...")
e------------------------------
B------------------------------
G--5------5-5------5------5-5--
D--5------5-5------5------5-5--
A--3------3-3------3------3-3--
E------------------------------

Pre-Chorus ("Hold on...")
e----------------------
B----------------------
G--55555555------------
D--55555555-5555-3333--
A--33333333-5555-3333--
E-----------3333-1111--

Chorus ("Don't tell me that it's over...")
e--------------------------------------
B--------------------------------------
G--5555555555555555--------------------
D--5555555555555555-55555555-33333333--
A--3333333333333333-55555555-33333333--
E-------------------33333333-11111111--

Verse
e--------------------------------------
B--------------------------------------
G--5xxxxxxxxxxxxxxx--------------------
D--5xxxxxxxxxxxxxxx-5xxxxxxx-3xxxxxxx--
A--3xxxxxxxxxxxxxxx-5xxxxxxx-3xxxxxxx--
E-------------------3xxxxxxx-1xxxxxxx--

Fill Riff
e----------------------
B----------------------
G----------------------
D----2---2---2---2--0--
A--3---3---3---3-------
E----------------------

Bridge (Palm Muted)
e----------------------------------
B----------------------------------
G--55555-55-55-5555----------------
D--55555-55-55-5555-55555-33-3333--
A--33333-33-33-3333-55555-33-3333--
E-------------------33333-11-1111--

++++++++++++++++++++++++++++++++++++++++++++++++++++++++++++++++++++++
15) MOTHER'S DAY

Verse ("Fuckin' it, suckin it, touchin it...")
e---------------------------------
B---------------------------------
G---------------------------------
D--2-22-2222-22-2222-22-5555-4-3--
A--2-22-2222-22-2222-22-5555-4-3--
E--0-00-0000-00-0000-00-3333-2-1--

Chorus ("It's mother's day...")
e--3333-3333-3333-3333--
B--3333-3333-3333-3333--
G--0000-0000-0000-2222--
D--2222-2222-0000-0000--
A--2222-3333-2222-------
E--0000------3333-------

Ending
e--0--
B--0--
G--0--
D--2--
A--2--
E--0--

++++++++++++++++++++++++++++++++++++++++++++++++++++++++++++++++++++++
15) FUCK A DOG (Tom's Yellow CD)

Main Riff
e-----------------------
B-----------------------
G----4------------------
D------5---5---5-----7--
A--5-----5---3---3-5----
E-----------------------

Ending
e-----------
B-----------
G----4------
D--5---5----
A--------5--
E-----------

++++++++++++++++++++++++++++++++++++++++++++++++++++++++++++++++++++++
15) GRANDPA (Mark's Green CD)

Intro (x4)
e--2-----0-----2-----0------------------------------
B-----3-----3-----3-----3---3------3/5---2-----2/3--
G------------------------------0------------2-------
D--0-----0-----0-----0------------------------------
A----------------------------------------0----------
E---------------------------3------3----------------

Verse 2
e----------------------------------------------------------------------------
B--3-----3-----3-----3------3-----3-----3-----3------3-----3-----3-----3-----
G-----0-----0-----0-----0------0-----0-----0-----0------0-----0-----0-----0--
D----------------------------------------------------------------------------
A---------------------------0-----0-----0-----0------------------------------
E--3-----3-----3-----3-------------------------------3-----3-----3-----3-----

e----------------------------------------------------------------------------
B--3-----3-----3------3-----3-----3-----3-----3------3-----3-----3-----3-----
G-----0-----0-----0------0-----0-----0-----0-----0------0-----0-----0-----0--
D----------------------------------------------------------------------------
A--0-----0-----0------0------------------------------0-----0-----0-----0-----
E---------------------------3-----3-----3-----3------------------------------

e-----------------------------
B--2-----2-----2-----2-----2--
G-----2-----2-----2-----2-----
D-----------------------------
A--0-----0-----0-----0-----0--
E-----------------------------

Ending
e-----
B--3--
G-----
D-----
A--0--
E-----

++++++++++++++++++++++++++++++++++++++++++++++++++++++++++++++++++++++
Well folks there it is the entire Take off Your pants And jacket 
album. All 100% correct and accurate. This is the only accurate tab
I've seen of the entire album, so enjoy.
Questions, Comments, Concerns, dont be shy
++++++++++++++++++++++++++++++++++++++++++++++++++++++++++++++++++++++
Tabs Coming soon...
The Mark Tom and Travis Show Album-Blink 182
Enthused-Blink 182
In Too Deep-Sum 41
Sucker-New Found Glory
and many more by these artists and others.
++++++++++++++++++++++++++++++++++++++++++++++++++++++++++++++++++++++





Comments


Popular *Blink 182* tabs & chords
Always Bass Tabs
Blow Job Bass Tabs
Carousel Live 1 Bass Tabs
Dont Tell Me Drum Tabs
Alone Intro Tabs
Dysentery Gary 2 Tabs
Easy Target Tabs
Enthused 2 Tabs
Feeling This 6 Tabs
Im Sorry 2 Tabs


Song lyrics



↑ Back to top | Tablatures and chords are parodies/interpretations of the original songs. You may use it for private study, scholarship, research or language learning purposes only
© 2014 AZChords.com Contact us | Privacy policy | DMCA | Add/correct tabs | Request tabs | Top 50 tabs