» » »

*Blink 182*, Romeo And Rebecca Tabs (ver.3)

Artists:  A B C D E F G H I J K L M N O P Q R S T U V W X Y Z # 

Romeo And Rebecca Tabs (ver.3)

*Blink 182* Tabs
 Rating:
4/5 (4 votes)
Romeo And Rebecca lessons Tabs too difficult? Try these video lessons and learn fast
1
                blink 182
romeo and rebecca
	intro
e|---------------------------------------------------------------------------|
B|---------------------------------------------------------------------------|
G|---------------------------------------------------------------------------|
D|---7----7---6------6-------------------------------------------------------|
A|--------------7---7-7------------------------------------------------------|
E|55---55---5-----5----------------------------------------------------------|

e|---------------------------------------------------------------------------|
B|---------------------------------------------------------------------------|
G|---------------------------------------------------------------------------|
D|---7----7---6--------------------------------------------------------------|
A|-------------7--554--------------------------------------------------------|
E|55---55---5--------45------------------------------------------------------|

e|---------------------------------------------------------------------------|
B|---------------------------------------------------------------------------|
G|---------------------------------------------------------------------------|
D|---7----7---6------6-------------------------------------------------------|
A|--------------7---7-7------------------------------------------------------|
E|55---55---5-----5----------------------------------------------------------|

e|---------------------------------------------------------------------------|
B|---------------------------------------------------------------------------|
G|---------------------------------------------------------------------------|
D|---7---7---6---------------------------------------------------------------|
A|-------------7-554---------------------------------------------------------|
E|55--55---5--------5--------------------------------------------------------|

e|---------------------------------------------------------------------------|
B|---------------------------------------------------------------------------|
G|---------------------67-66-------------------------------------------------|
D|66-77-67-99-77-67-99-------99-77-67----------------------------------------|
A|---------------------------------------------------------------------------|
E|---------------------------------------------------------------------------|

e|---------------------------------------------------------------------------|
B|---------------------------------------------------------------------------|
G|---------------------------------------------------------------------------|
D|7p6-7p6-7p6--7776----------------------------------------------------------|
A|---7---7---7-----75544544--------------------------------------------------|
E|--------------------------75-----------------------------------------------|

bass riff
e|---------------------------------------------------------------------------|
B|---------------------------------------------------------------------------|
G|---------------------------------------------------------------------------|
D|---------------------------------------------------------------------------|
A|---7---977-----7---977----7---------999977---------------------------------|
E|55---5-----577---7----599---977-977----------------------------------------|
            
Submit corrections

comments powered by Disqus
↑ Back to top | *Blink 182* Tabs for Romeo And Rebecca. Lyrics for acoustic guitar and electric guitar. 1 Tablatures and chords are parodies/interpretations of the original songs. You may use it for private study, scholarship, research or language learning purposes only