>
 >
Reebok Commercial

Reebok Commercial Guitar Tabs

*Blink 182* - Reebok Commercial chords, tabs, tablatures, lyrics

Guitar lessons | Add/correct | Request | Top 50 tabs Artists:  A B C D E F G H I J K L M N O P Q R S T U V W X Y Z 0-9

Reebok Commercial Guitar Tabs – *Blink 182*

CD, Sheet music, Poster

Do you like Reebok Commercial? Share with your friends now
TabsTabs v2
Reebok Commercial by Blink 182

Intro pt 1
E|---------------|
B|---------------|
G|-7-----7-----7-|
D|-7--------5--7-|
A|-5-----------5-|
E|---------------|

Intro pt 2
E|-------------------------------|
B|-------------------------------|
G|-7------12------14------12-----|
D|-7-16x--12-16x--14-16x--12-16x-|
A|-5------10------12------10-----|
E|-------------------------------|

Intro pt 3 (Also played as a pre-chorus)
E|-----------------------------------------------------------------|
B|-----------------------------------------------------------------|
G|-7-7-7-7-7-7-7-7-7-7-7-7-7-7-7-7---------------------------------|
D|-7-7-7-7-7-7-7-7-7-7-7-7-7-7-7-7-9-9-9-9-9-9-9-9-5-5-5-5-5-5-5-5-|
A|-5-5-5-5-5-5-5-5-4-4-4-4-4-4-4-4-9-9-9-9-9-9-9-9-5-5-5-5-5-5-5-5-|
E|---------------------------------7-7-7-7-7-7-7-7-3-3-3-3-3-3-3-3-|

E|-----------------------------------------|
B|-----------------------------------------|
G|-7-9-9-11-11-12-12-14-14-12-12-11-11-9-9-|
D|-7-9-9-11-11-12-12-14-14-12-12-11-11-9-9-|
A|-5-7-7--9--9-10-10-12-12-10-10--9--9-7-7-|
E|-----------------------------------------|

Verse (Palm muted)
E|-----------------------------------------------------------------|
B|-----------------------------------------------------------------|
G|-7-7-7-7-7-7-7-7-------------------------------------------------|
D|-7-7-7-7-7-7-7-7-5-5-5-5-5-5-5-5-7-7-7-7-7-7-7-7-5-5-5-5-5-5-5-5-|
A|-5-5-5-5-5-5-5-5-5-5-5-5-5-5-5-5-7-7-7-7-7-7-7-7-5-5-5-5-5-5-5-5-|
E|-----------------3-3-3-3-3-3-3-3-5-5-5-5-5-5-5-5-3-3-3-3-3-3-3-3-|

Chorus
E|-----------------------------------------------------------------|
B|-----------------------------------------------------------------|
G|-7-7-7-7-7-7-7-7-------------------------------------------------|
D|-7-7-7-7-7-7-7-7-7-7-7-7-7-7-7-7-4-4-4-4-4-4-4-4-5-5-5-5-5-5-5-5-|
A|-5-5-5-5-5-5-5-5-7-7-7-7-7-7-7-7-4-4-4-4-4-4-4-4-5-5-5-5-5-5-5-5-|
E|-----------------5-5-5-5-5-5-5-5-2-2-2-2-2-2-2-2-3-3-3-3-3-3-3-3-|

Solo
E|-------------------------------------------------------------------------|
B|-------------------------------------------------------------------------|
G|-7-7-7-9-11-9-7--9-9-9-11-12-11-9-7-9p7-11p7-9p7-11p7-9p7-11p7-12-11-9-7-|
D|-------------------------------------------------------------------------|
A|-------------------------------------------------------------------------|
E|-------------------------------------------------------------------------|

E|----10----10-12-12-10-10-9-10-----10----10-14-14-12-10-9-|
B|-10----10----------------------10----10------------------|
G|---------------------------------------------------------|
D|---------------------------------------------------------|
A|---------------------------------------------------------|
E|---------------------------------------------------------|

E|-12p10-14p10-12p10-14p10-12p10-14p10-12p10-14p10-|
B|-------------------------------------------------|
G|-------------------------------------------------|
D|-------------------------------------------------|
A|-------------------------------------------------|
E|-------------------------------------------------|

E|-14p12-15p12-14p12-15p12-14p12-15p12-14p12-15p12-|
B|-------------------------------------------------|
G|-------------------------------------------------|
D|-------------------------------------------------|
A|-------------------------------------------------|
E|-------------------------------------------------|

the solo sounds ok. may be missing a few notes.





Comments


Popular *Blink 182* tabs & chords
Apple Shampoo 5 Bass Tabs
Boxing Day 4 Bass Tabs
Toast And Bananas 2 Bass Tabs
Down Live Drum Tabs
Feeling This 1 Drum Tabs
Blow Job Tabs
Dont Tell Me Its Over 3 Tabs
Hidden Track Tabs
Untitled Live Tabs
What Went Wrong Claranet And Guitar Tabs


Song lyrics



↑ Back to top | Tablatures and chords are parodies/interpretations of the original songs. You may use it for private study, scholarship, research or language learning purposes only
© 2014 AZChords.com Contact us | Privacy policy | DMCA | Add/correct tabs | Request tabs | Top 50 tabs