» » »

*Blink 182*, Point Of View Tabs (ver.2)

Artists:  A B C D E F G H I J K L M N O P Q R S T U V W X Y Z # 

Point Of View Tabs (ver.2)

*Blink 182* Tabs
 Rating:
4/5 (4 votes)
Point Of View lessons Tabs too difficult? Try these video lessons and learn fast
1
                blink 182
point of view
Intro:
h=harmonic
1:-----------------------------------------------------------|
2:-----------------------------------------------------------|
3:-----------------6-X-7-------------------------------------|
4:-----------7-X-X-6-X-7--------------------7-X-X-4-X-2------|
5:-h7-(x12)--7-X-X-4-X-5-h7-h7-h7-h7-h7-h7--7-X-X-4-X-2------|
6:-----------5-X-X--------------------------5-X-X-2-X-0------|

1:------------------------------------------------------------|
2:------------------------------------------------------------|
3:--------------------------6-X-7-----------h7----------------|
4:--------------------7-X-X-6-X-7--h7-h7-h7----h7-7-X-X-4-X-2-|
5:--h7-h7-h7-h7-h7-h7-7-X-X-4-X-5-----------------7-X-X-4-X-2-|
6:--------------------5-X-X-----------------------5-X-X-2-X-0-|

Verse:
Palm Mute=*
1:-----------------------------------------------------|
2:-----------------------------------------------------|
3:-----6-7-7-7-7-------9-9-9-9-------------------------|
4:-7-7-6-7-7-7-7-7-7-4-9-9-9-9-------------------------|
5:-7-7-4-5-5-5-5-7-7-4-7-7-7-7-------------------------|
6:-5-5-----------5-5-2---------------------------------|
   * *           * * *

Pre-Chorus:
1:----------------------------------------------|
2:----------------------------------------------|
3:-------9-9-9----------------------------------|
4:-7-7-7-9-9-9-9-9-9-7-7-7----------------------|
5:-7-7-7-7-7-7-9-9-9-7-7-7----------------------|
6:-5-5-5-------7-7-7-5-5-5----------------------|
            
Submit corrections

comments powered by Disqus
↑ Back to top | *Blink 182* Tabs for Point Of View. Lyrics for acoustic guitar and electric guitar. 1 Tablatures and chords are parodies/interpretations of the original songs. You may use it for private study, scholarship, research or language learning purposes only