» » »

Man Overboard Tabs (ver.2)

Artists:  A B C D E F G H I J K L M N O P Q R S T U V W X Y Z # 

Man Overboard Tabs (ver.2)

*Blink 182*
Rating:
0/5 (0 votes)

Hard to play? Try these video lessons and learn fast.
                k, this is my very first time i ever learned a song by ear..
this IS the entire song and you just have to go step by step 
the way it is layed out...let me know what you think... 



"so sorry its over....so sorry its over...etc"
-------------------------------------------another guitar is
---------keep short!-----------------------playing some palm
-------------------------------------------muted power chords.
-------------------------------------------
--5-3--------5-3--------5-3---3---3-------------
3-----7----3-----7----3-----7---7---7- <=dont let ring out
play this 6 times but on the last time 
dont play the last 2 notes.

after two times playing intro, singing starts and second guitar plays:
------------------------------------------------------
------------------------------------------------------
----------5--------7---------------------------------
5---------5--------7---------------------------------
5---------3--------5---------------------------------
3-----------------------------------------------------

then:
-------------------------------------------------------5-------
2h3p2---2h3p2--0-----(4times)---then--5h7p5---5h7p5--3------(3times)
-----------------3---------------------------------------------

then:
play this one time with palm mute and one time without p.m.
----------------5-5-5-5-5-5-5-5-7-7-7-7-7-7-7-7-5-5-5-5-5-5-5-5
5-5-5-5-5-5-5-5-5-5-5-5-5-5-5-5-7-7-7-7-7-7-7-7-5-5-5-5-5-5-5-5
5-5-5-5-5-5-5-5-3-3-3-3-3-3-3-3-5-5-5-5-5-5-5-5-3-3-3-3-3-3-3-3
3-3-3-3-3-3-3-3------------------------------------------------

next:
----------------------------
----------------------------
----------------------------
----------------------------
2h3p2---2h3p2-0-3---(4times)
----------------------------

then:
play this (again)one time with palm mute and one time without p.m
----------------5-5-5-5-5-5-5-5-7-7-7-7-7-7-7-7-5-5-5-5-5-5-5-5
5-5-5-5-5-5-5-5-5-5-5-5-5-5-5-5-7-7-7-7-7-7-7-7-5-5-5-5-5-5-5-5
5-5-5-5-5-5-5-5-3-3-3-3-3-3-3-3-5-5-5-5-5-5-5-5-3-3-3-3-3-3-3-3
3-3-3-3-3-3-3-3------------------------------------------------

interlude:
  "so sorry, its over..."
---------------------------------
---------------------------------
------------------------5-------- strum slowly
--5---------------------5--------
--5---------------------3--------
--3------------------------------

then:
------------------------------------------------------5---------
2h3p2---2h3p2--0----(4times)---then--5h7p5---5h7p5--3----(4times)
-----------------3----------------------------------------------


outro:
----------------5-5-5-5-5-5-5-5-----------------5-5-5-5-5-5-5-5
5-5-5-5-5-5-5-5-5-5-5-5-5-5-5-5-5-5-5-5-5-5-5-5-5-5-5-5-5-5-5-5-
5-5-5-5-5-5-5-5-3-3-3-3-3-3-3-3-5-5-5-5-5-5-5-5-3-3-3-3-3-3-3-3-
3-3-3-3-3-3-3-3-----------------3-3-3-3-3-3-3-3-----------------

----------------5-5-5-5-5-5-5----------------5-5-5-5/7-7-7-7----
5-5-5-5-5-5-5-5-5-5-5-5-5-5-5-5-5-5-5-5-5-5--5-5-5-5/7-7-7-7--5-
5-5-5-5-5-5-5-5-3-3-3-3-3-3-3-5-5-5-5-5-5-5--3-3-3-3/5-5-5-5--5-
3-3-3-3-3-3-3-3---------------3-3-3-3-3-3-3-------------------3-

let last note ring out.
            
Hard to play? Try these video lessons and learn fast. | Correct




comments powered by Disqus
↑ Back to top | Tablatures and chords are parodies/interpretations of the original songs. You may use it for private study, scholarship, research or language learning purposes only