» » »

I Wont Be Home For Christmas Tabs (ver.3)

Artists:  A B C D E F G H I J K L M N O P Q R S T U V W X Y Z # 

I Wont Be Home For Christmas Tabs (ver.3)

*Blink 182*
Rating:
0/5 (0 votes)

Hard to play? Try these video lessons and learn fast.
                blink 182
i wont be home for christmas
  Intro : solo      (play 2x)
e|------------------------------------------------------------------------------------------
B|------------------------------------------------------------------------------------------
G|-------4---7-5----4p2---------4---------4---------4----7-5----4p2--------4--------4-------
D|--5-5----5-----5------5---2-5---5---2-5---5---0-5---5------5------5--2-5---5---0-5--5-----
A|------------------------------------------------------------------------------------------
E|------------------------------------------------------------------------------------------

Verse: (palm muted)
e|---------------------------------------------------------
B|---------------------------------------------------------
G|--------------------5-------7----------------------------
D|---5-------2--------5-------7----------------------------
A|---5-------2--------3-------5----------------------------
E|---3-------0---------------------------------------------

Fake Chorus: ("its christmas time again... so i stand..")
e|---------------------------------------------------------
B|------------(it just consists of this one chord)---------
G|-------7-------------------------------------------------
D|-------X-------------------------------------------------
A|-------5-------------------------------------------------
E|---------------------------------------------------------

Chorus: (played 4x) goes from "its christmas time again... and then leave me 
alone"
e|---------------------------------------------------------
B|---------------------------------------------------------
G|--------------5----7---------------------------------------
D|---5----2-----5----7-----------------------------------------
A|---5----2-----3----5-----------------------------------------
E|---3----0--------------------------------------------------

Interlude: ("i won't be home, i won't be home for christmas")
e|---------------------------------------------------------
B|---------------------------------------------------------
G|---------4--4---4----------------------------------------
D|---------5--5------5-------------------------------------
A|---------------------------------------------------------
E|---------------------------------------------------------

End:
e|---------------------------------------------------------
B|---------------------------------------------------------
G|---------7----------5------------------------------------
D|----5----7-----2----5------------------------------------
A|----5----5-----2----3------------------------------------
E|----3----------0-----------------------------------------
            
Hard to play? Try these video lessons and learn fast. | Correct




comments powered by Disqus
↑ Back to top | Tablatures and chords are parodies/interpretations of the original songs. You may use it for private study, scholarship, research or language learning purposes only