» » »

I Know A Guy Bass tabs (ver.1)

Artists:  A B C D E F G H I J K L M N O P Q R S T U V W X Y Z # 

I Know A Guy Bass tabs (ver.1)

*Blink 182*
Rating:
0/5 (0 votes)

Hard to play? Try these video lessons and learn fast.
                (1)
G:-------------------------------------------------------------------------
D:------------------------------------------------------------------------- X1
A:-------------------4-4-4-4-4-4-4-4-6-6-6-6-6-6-6-6-----------------------
E:--2--------------------------------------------------7-7-7-7-7-7-7-7-----


G:-------------------------------------------------------------------------
D:------------------------------------------------------------------------- X2
A:------------------------4-4-4-4-4-4-4-4-6-6-6-6-6-6-6-6------------------
E:--2-2-2-2-2-2-2-2----------------------------------------7-7-7-7-7-7-7-7-


G:--------------------------------------------------------------------------
D:-------------------------------------------------------------------------- X1
A:------------------------4-4-4-4-4-4-4-4-6-6-6-6-6-6-6-6-------------------
E:--2-2-2-2-2-2-2-2----------------------------------------7----------------
            
Hard to play? Try these video lessons and learn fast. | Correct




comments powered by Disqus
↑ Back to top | Tablatures and chords are parodies/interpretations of the original songs. You may use it for private study, scholarship, research or language learning purposes only