» » »

I Know A Guy Tabs (ver.1)

Artists:  A B C D E F G H I J K L M N O P Q R S T U V W X Y Z # 

I Know A Guy Tabs (ver.1)

*Blink 182*
Rating:
0/5 (0 votes)

Hard to play? Try these video lessons and learn fast.
                e------------------------------------------------------------------------------------------------------------
B----------------------------------------------------------------------------------------------------------
G-----------------------------------------------------------------------------------------------------------
D----------------------------------------------------------------------------------------------------------
A--4-------6-6-6-6-6-6-6-6----8-8-8-8-8-8-8-8----9-9-9-9-9-9-9-9-------------------------------
E--2-------4-4-4-4-4-4-4-4----6-6-6-6-6-6-6-6----7-7-7-7-7-7-7-7--------------------
                P.M._________________________________________                        
e------------------------------------------------------------------------------------------------
B-----------------------------------------------------------------------------------------------
G------------------------------------------------------------------------------------------------
D------------------------------------------------------------------------------------------------
A--4-4-4-4-4-4-4-4----6-6-6-6-6-6-6-6----8-8-8-8-8-8-8-8----9-9-9-9-9-9-9-9--------------------------------------
E--2-2-2-2-2-2-2-2----4-4-4-4-4-4-4-4----6-6-6-6-6-6-6-6----7-7-7-7-7-7-7-7----------------------------------------------
P.M.____________________________________________________________
            
Hard to play? Try these video lessons and learn fast. | Correct




comments powered by Disqus
↑ Back to top | Tablatures and chords are parodies/interpretations of the original songs. You may use it for private study, scholarship, research or language learning purposes only