» » »

Hidden Track Tabs (ver.2)

Artists:  A B C D E F G H I J K L M N O P Q R S T U V W X Y Z # 

Hidden Track Tabs (ver.2)

*Blink 182*
Rating:
0/5 (0 votes)

Hard to play? Try these video lessons and learn fast.
                INTRO
E |------------------------|
B |----4---2---------------|
G |------------------------| 2x
D |--3---------------------|
A |------------------------|
E |------------------------|

A    F#    D  (2x)


      VERSE
A                 F#                E                   D
Im sick of always hearing all those sad songs on the radio
A             F#                      E                     D
All day it is there to remind an over sensitive guy that is lost and alone. Yeah

A    F#    D   (2x)

A                   F#                       E                    D
I hate our favorite restaurant, our favorite movie our favorite show
A                F#                             E                            D
We would stay up all through the night we would laugh and get high and never answer the phone

    
    Chorus 
A         Ab            F#             D
I cant forgive, Cant forget, Cant give in
          A               Ab            F#
What went wrong cause you said this was right?
    D            A
You f**ked up my life.


A  F#  D (2x)
Then play one part of the verse and one part of the Chorus
Then go to Solo  






     SOLO
E |------0--------------0------------------0----------------0-------------|
B |-------------2----------------2------------------2---------------2-----|
G |----2---2--2---2---2---2----2---2-----2---2----2---2---2---2---2---2---|
D |------------------------------------0--------0--------0------0---------|
A |-----------------------------------------------------------------------|
E |--2-------2------2-------2---------------------------------------------|


E |------0----------------0-----------------------------------------------|
B |--------------2----------------2--------2------2-----2---2222222222----|
G |----2---2---2---2----2---2---2---2----2------2-----2-----2222222222----|
D |------------------------------------0------0-----0-------0000000000----|
A |--0-------0--------2--------2------------------------------------------|
E |-----------------------------------------------------------------------|


F#   D   A 
F#   D   A
E    D  
 

   A           F#          D          A         F#            D
Im kicking how fiercely at the world around me, what went wrong

END on A



A  577xxx
F# 244xxx
D  x577xx
E  x799xx
Ab 466xxx
            
Hard to play? Try these video lessons and learn fast. | Correct




comments powered by Disqus
↑ Back to top | Tablatures and chords are parodies/interpretations of the original songs. You may use it for private study, scholarship, research or language learning purposes only