» » »

*Blink 182*, Grandpa Tabs (ver.2)

Artists:  A B C D E F G H I J K L M N O P Q R S T U V W X Y Z # 

Grandpa Tabs (ver.2)

*Blink 182* Tabs
Rating:
0/5 (0 votes)
Grandpa lessons Tabs too difficult? Try these video lessons and learn fast
                
(Verse)When you ***ed grandpa
-2-0-2-0--------------2-0-2-0-------------------------------------------------
--3-3-3-3-3-3/5-2-2-3--3-3-3-3-3-3/5-2-2-3------------------------------------
-----------0-----2--------------0-----2---------------------------------------
-0-0-0-0--------0-----0-0-0-0--------0----------------------------------------
----------0-0------------------0-0--------------------------------------------
                                                                              
(Chorus) He seem like a total a**hole....
-3-3-3-3-3-3-3-3-3-3-3-3-3-3-3-3-3-3-3-3-3-3-3-3-2-2-2-2-2--------------------
--0-0-0-0-0-0-0-0-0-0-0-0-0-0-0-0-0-0-0-0-0-0-0-0-0-0-0-0---------------------
---------0-0-0-0---------0-0-0-0---------0-0-0-0-0-0-0-0-0--------------------
-3-3-3-3---------3-3-3-3---------3-3-3-3--------------------------------------
                                                                              
End on this       Order:             Have a nice day, E~mail me w/ comments at 
-3-               2. Chorus
---               3. Verse
---               4. Chorus
-0-               5. End on
---
            
Submit corrections

comments powered by Disqus
↑ Back to top | *Blink 182* Tabs for Grandpa. Lyrics for acoustic guitar and electric guitar. Tablatures and chords are parodies/interpretations of the original songs. You may use it for private study, scholarship, research or language learning purposes only