» » »

First Date Tabs (ver.4)

Artists:  A B C D E F G H I J K L M N O P Q R S T U V W X Y Z # 

First Date Tabs (ver.4)

*Blink 182*
Rating:
0/5 (0 votes)

Hard to play? Try these video lessons and learn fast.
                "(Intro)
guitar 1   
  
     do this twice 
  e[---------------------------------------------]
  b[-5-1----1---3-1----1---3-1----1---3-1----0---]
  g[-----0----0-----0----0-----0----0-----0----0-]
  d[---------------------------------------------]
  a[---------------------------------------------]
  e[---------------------------------------------]

  guitar 2

     the stumming patterns are down,down, down,up,down,up
  e[---------------------------------------------]
  b[---------------------------------------------]
  g[-5-5-5555-7-7-7777---------------------------]
  d[-5-5-5555-7-7-7777-3-3-3333-5-5-5555---------]
  a[-3-3-3333-5-5-5555-3-3-3333-5-5-5555---------]
  e[-------------------1-1-1111-3-3-3333---------]
"            
Hard to play? Try these video lessons and learn fast. | Correct




comments powered by Disqus
↑ Back to top | Tablatures and chords are parodies/interpretations of the original songs. You may use it for private study, scholarship, research or language learning purposes only