» » »

*Blink 182*, First Date Tabs (ver.3)

Artists:  A B C D E F G H I J K L M N O P Q R S T U V W X Y Z # 

First Date Tabs (ver.3)

*Blink 182* Tabs
 Rating:
4/5 (4 votes)
First  Date lessons Tabs too difficult? Try these video lessons and learn fast
                "(2)
THIS IS A REALLY COOL SONG AND THIS TAB IS GUARANTEED 110% CORRECT 
  
INTRO 
  
E -0----------------------------------------------------------------------------------------------------------- 
B-----1--------1--------3---1---------1-------3---1-------1---------3---1-------0--------------------- 
G---------0--------0--------------0--------0------------0--------0-------------0-------0--------------- 
D------------------------------------------------------------------------------------------------------------ 
A------------------------------------------------------------------------------------------------------------ 
E------------------------------------------------------------------------------------------------------------ 
  
  
BASSLINE 
In the car I just can't wait / to pick you up on our very first date........... 
---3-3-3-3-3-3-3-3-3-3-3-3------------------------------------------------------------------------- 
-----------------------------------------3-3-3-3-3-3-3-3-3-3-3-3-3-3-3-1-1-1-1-1-1----------- 
  
  
lets go/       don't wait  /     lets make this /  last for/  ev-er 
  
E------------------------------------------------------------------------------------------------------------ 
B------------------------------------------------------------------------------------------------------------ 
G-----5-5-5------4-4-4----------------------------------------------------------------------------------- 
D-----5-5-5------4-4-4------------7-7-7-7-7-7-7----------3-3------5-5--------------------------- 
A-----3-3-3------2-2-2------------7-7-7-7-7-7-7----------3-3------5-5--------------------------- 
E-------------------------------------5-5-5-5-5-5-5----------1-1------3-3--------------------------- 
  
PALM MUTE DURING VERSE 
  
E------------------------------------------------------------------------------------------------------------ 
B------------------------------------------------------------------------------------------------------------ 
G---5 5 5-------5 5 5-------5 5 5-----5-5-5---------------------------------------------------------- 
D---5-5-5--------5-5-5------5-5-5-----5-5-5---------------------------------------------------------- 
A---3-3-3--------3-3-3------3-3-3-----3-3-3---------------------------------------------------------- 
E------------------------------------------------------------------------------------------------------------ 
  
  
PALM MUTE RIFF NEAR END OF SONG 
  
C / Em / F/ G 
  
  
  
E------------------------------------------------------------------------------------------------------------ 
B------------------------------------------------------------------------------------------------------------ 
G---555555--5----9999---55----10--10--10--10-----------55----7777777------------------- 
D---xxxxxx--x----xxxx---xx---  x     x   x   x------------xx----xxxxxxx--------------------- 
A---333333--3----7777---33---  8      8   8        8------33----5555555--------------------- 
E------------------------------------------------------------------------------------------------------------
"            
Submit corrections

comments powered by Disqus
↑ Back to top | *Blink 182* Tabs for First Date. Lyrics for acoustic guitar and electric guitar. Tablatures and chords are parodies/interpretations of the original songs. You may use it for private study, scholarship, research or language learning purposes only