>
 >
First Date 9

First Date 9 Guitar Tabs

*Blink 182* - First Date 9 chords, tabs, tablatures, lyrics

Guitar lessons | Add/correct | Request | Top 50 tabs Artists:  A B C D E F G H I J K L M N O P Q R S T U V W X Y Z 0-9

First Date 9 Guitar Tabs – *Blink 182*

CD, Sheet music, Poster

Do you like First Date 9? Share with your friends now
Tabs
Blink 182
Take Off Your Pants and Jacket
03- First Date
Standard Tuning

INTRO   2x
e-----------------------------------------------------------
B--5-1---1------3-1---1-----3-1---1------3-1---0----(0)-----
G------0---0--------0---0-------0---0--------0---0----------
D-----------------------------------------------------------
A-----------------------------------------------------------
E-----------------------------------------------------------
(0) last time around 

VERSE
       pm. . . . . . . . . . . . . . . . . . . . . . .
e-----------------------------------------------------------
B-----------------------------------------------------------
G-5----5-5-5---5-5-5---5-5-5---5-5-5---5-5-5---5-5-5--------
D-x---------------------------------------------------------
A-3(let ring)-----------------------------------------------
E-----------------------------------------------------------
just repeat the 5-5-5s as many times as necessary


CHORUS1
e-----------------------------------------------------------
B-----------------------------------------------------------
G------------------2-2-2-2----------------------------------
D--5-5-5---5-5-5---2-2-2-2---3-3--5-5-----------------------
A--3-3-3---2-2-2---0-0-0-0---3-3--5-5-----------------------
E----------------------------1-1--3-3-----------------------

gtr. 1 continues to play chorus while gtr. 2 plays CHORUS2

CHORUS2
"Forever and ever, lets make this last forever"
e-----------------------------------------------------------
B--5-5-5-5-5-5--3-3-3-3-3-3--1-1-1-1-1-1--------------------
G--5-5-5-5-5-5--0-0-0-0-0-0--2-2-2-2-2-2--------------------
D--5-5-5-5-5-5--0-0-0-0-0-0--2-2-2-2-2-2--3-3-5-5-----------
A--3-3-3-3-3-3--2-2-2-2-2-2--0-0-0-0-0-0--3-3-5-5-----------
E-----------------------------------------1-1-3-3-----------

SOLO
pm . . . . . . . . . . . . . . . . . . . . . . . . . . . . .
e-----------------------------------------------------------
B-----------------------------------------------------------
G-----------------------------------------------------------
D-55555555--------------------------------------------------
A-33333333--------------------------------------------------
E----------00000000----11111111----33333333-----------------

still muted
e-----------------------------------------------------------
B-----------------------------------------------------------
G-----------------------------------------------------------
D-----------------------------------------------------------
A---3333333-------------------------------------------------
E--3---------00000000----11111111---33333333----------------

e-----------------------------------------------------------
B-----------------------------------------------------------
G-5555555--99999\55--11111\55---7777777---------------------
D-xxxxxxx--xxxxx-xx--xxxxx-xx---xxxxxxx---------------------
A-3333333--77777\33--88888\33---5555555---------------------
E-----------------------------------------------------------

**the 1s are supposed ot be 10s but they wouldnt fit without messin it up

finish with gtr 1 playing CHORUS1 and gtr 2 playing INTRO





Comments


Popular *Blink 182* tabs & chords
A New Hope 5 Bass Tabs
All The Small Things 6 Bass Tabs
Carousel 2 Bass Tabs
All The Small Things 1 Drum Tabs
Adams Song Intro Tabs
After Midnight 6 Tabs
Blew Job Tabs
Carousel 1 Tabs
Dysentary Gary Tabs
Untitled 1 Tabs


Song lyrics



↑ Back to top | Tablatures and chords are parodies/interpretations of the original songs. You may use it for private study, scholarship, research or language learning purposes only
© 2014 AZChords.com Contact us | Privacy policy | DMCA | Add/correct tabs | Request tabs | Top 50 tabs