» » »

First Date Tabs (ver.13)

Artists:  A B C D E F G H I J K L M N O P Q R S T U V W X Y Z # 

First Date Tabs (ver.13)

*Blink 182*
Rating:
0/5 (0 votes)

Hard to play? Try these video lessons and learn fast.
                "(6)
***********************************************
***********************************************
***********************************************
blink-182
TAKE OFF YOUR PANTS & JACKET    

(Distortion)
Intro:
e-0---------------------------------------------
b---1---1-----3-1---1-----3-1---1----3-1---0----
g-----0---0-------0---0-------0---0------0---0-- x 2
d-----------------------------------------------
a-----------------------------------------------
E-----------------------------------------------

verse part 1
e-------
b-------
g---5--- ...let ring
d---5---
a---3---
E-------

part 2:
e-----------
b-----------    palm muted
g--5-5-5-5-- ..etc. (repeat until chorus)
d-----------
a-----------
E-----------

Chorus part 1(Let’s Go..)
e--------------------------------------------
b--------------------------------------------
g--5-5-5---4-4-4---2-2-2-2-2-2-2-2----------- x 2
d--5-5-5---4-4-4---2-2-2-2-2-2-2-2--3-3--5-5-
a--3-3-3---2-2-2---0-0-0-0-0-0-0-0--3-3--5-5-
E-----------------------------------1-1--3-3-

part 2 (Forever...and Ever..)
e--------------------------------
b--------------------------------
g-5------4------2---------------- x 2
d-5-x 8--4-x 8--2-x 2--3-3--5-5--
a-3------2------0------3-3--5-5--
E----------------------1-1--3-3--

repeat Intro, verse, and chorus.

Bridge: *PALM MUTED*
e--------------------------------
b--------------------------------
g-5------------------------------ x 2
d-5-x 8---2-------3-------5------
a-3-------2-x 7---3-x 7---5-x 7--
E---------0-------1-------3------

e--------------------------------------
b--------------------------------------
g-5------9------5--10------5---7------- x 2
d-5-x 7--9-x 4--5--10-x 4--5---7-x 7---
a-3------7------3---8------3---5-------
E--------------------------------------

Repeat Chorus, but for end part play:
e-0---------------------------------------------
b---1---1-----3-1---1-----3-1---1----3-1---0----
g-----0---0-------0---0-------0---0------0---0-- x 2
d-----------------------------------------------
a-----------------------------------------------
E-----------------------------------------------

End on 

e-------
b-------
g---5--- 
d---5---
a---3---
E-------
"            
Hard to play? Try these video lessons and learn fast. | Correct




comments powered by Disqus
↑ Back to top | Tablatures and chords are parodies/interpretations of the original songs. You may use it for private study, scholarship, research or language learning purposes only