» » »

Family Reunion Tabs (ver.3)

Artists:  A B C D E F G H I J K L M N O P Q R S T U V W X Y Z # 

Family Reunion Tabs (ver.3)

*Blink 182*
Rating:
0/5 (0 votes)

Hard to play? Try these video lessons and learn fast.
                Blink 182
Family Reunion
The Enima Strikes Back
clean
e--------------------------------
b--------------------------------
g-2-2-2-2-2-2-2-2-4-4-4-4-4-4-4-4
d-2-2-2-2-2-2-2-2-4-4-4-4-4-4-4-4
a-0-0-0-0-0-0-0-0-2-2-2-2-2-2-2-2
e--------------------------------
pm...............................

e--------------------------------
b--------------------------------
g-6-6-6-6-6-6-6-6-7-7-7-7-7-7-7-7
d-6-6-6-6-6-6-6-6-7-7-7-7-7-7-7-7
a-4-4-4-4-4-4-4-4-5-5-5-5-5-5-5-5
e--------------------------------
pm...............................
distortion
e--------------------------------
b--------------------------------
g-2-2-2-2-2-2-2-2-4-4-4-4-4-4-4-4
d-2-2-2-2-2-2-2-2-4-4-4-4-4-4-4-4
a-0-0-0-0-0-0-0-0-2-2-2-2-2-2-2-2
e--------------------------------

e--------------------------------
b--------------------------------
g-6-6-6-6-6-6-6-6-7-7-7-7-7-7-7-7
d-6-6-6-6-6-6-6-6-7-7-7-7-7-7-7-7
a-4-4-4-4-4-4-4-4-5-5-5-5-5-5-5-5
e--------------------------------
ska-ish type part ()=bend string
e----------------------------------------
b----------------------------------------
g-2-2-2-(2)-4-4-4-(4)-6-6-6-(6)-7-7-7-(7)
d-2-2-2-----4-4-4-----6-6-6-----7-7-7----
a-0-0-0-----2-2-2-----4-4-4-----5-5-5----
e----------------------------------------

e--------------------------------
b--------------------------------
g-2-2-2-2-2-2-2-2-4-4-4-4-4-4-4-4
d-2-2-2-2-2-2-2-2-4-4-4-4-4-4-4-4
a-0-0-0-0-0-0-0-0-2-2-2-2-2-2-2-2
e--------------------------------
last verse 16th notes end song on A5
e--------------------------------
b--------------------------------
g-6-6-6-6-6-6-6-6-7-7-7-7-7-7-7-7
d-6-6-6-6-6-6-6-6-7-7-7-7-7-7-7-7
a-4-4-4-4-4-4-4-4-5-5-5-5-5-5-5-5
e--------------------------------
okay kids play this in front of your
 mom and dad now
            
Hard to play? Try these video lessons and learn fast. | Correct




comments powered by Disqus
↑ Back to top | Tablatures and chords are parodies/interpretations of the original songs. You may use it for private study, scholarship, research or language learning purposes only