» » »

*Blink 182*, Down Tabs (ver.2)

Artists:  A B C D E F G H I J K L M N O P Q R S T U V W X Y Z # 

Down Tabs (ver.2)

*Blink 182* Tabs
 Rating:
4/5 (4 votes)
Down lessons Tabs too difficult? Try these video lessons and learn fast
1
                Intro:
e|-----------------------|
B|-----------------------|
G|--4444-x-4444-x-444-x--|
D|--xxxx-x-xxxx-x-xxx-x--| x6
A|--2222-x-2222-x-222-x--|
E|-----------------------|

Verse 1:
e|---------------------------------------|
B|---------------------------------------|
G|--4444-x-4444-x-44----------3333-x-33--|
D|--xxxx-x-xxxx-x-xx--6666-x--xxxx-x-xx--| 4x
A|--2222-x-2222-x-22--xxxx-x--1111-x-11--|
E|--------------------4444-x-------------|

e|-----|
B|-----|
G|-----|
D|--2--| 1x
A|--2--|
E|--0--|

Chorus:
e|--------------------------------------------------------------------------------------|
B|--------------------------------------------------------------------------------------|
G|----------------3333-3333-33--4444-4444-44------------------------------3333-3333-33--|
D|--6666-6666-66--3333-3333-33--4444-4444-44--4444-4444-44--6666-6666-66--3333-3333-33--| 2x
A|--6666-6666-66--1111-1111-11--2222-2222-22--4444-4444-44--6666-6666-66--1111-1111-11--|
E|--4444-4444-44------------------------------2222-2222-22--4444-4444-44----------------|

e|----------------------------------------------------------|
B|----------------------------------------------------------|
G|--4444-4444-44--------------------------------------------|
D|--4444-4444-44--2222-2222-22--6666-6666-66--2222-2222-22--| 2x
A|--2222-2222-22--2222-2222-22--6666-6666-66--2222-2222-22--|
E|----------------0000-0000-00--4444-4444-44--0000-0000-00--|

Verse 2:
e|---------------------------------------|
B|---------------------------------------|
G|--4444-x-4444-x-44----------3333-x-33--|
D|--xxxx-x-xxxx-x-xx--6666-x--xxxx-x-xx--| 4x
A|--2222-x-2222-x-22--xxxx-x--1111-x-11--|
E|--------------------4444-x-------------|

e|-----|
B|-----|
G|-----|
D|--2--| 1x
A|--2--|
E|--0--|

Chorus:
e|--------------------------------------------------------------------------------------|
B|--------------------------------------------------------------------------------------|
G|----------------3333-3333-33--4444-4444-44------------------------------3333-3333-33--|
D|--6666-6666-66--3333-3333-33--4444-4444-44--4444-4444-44--6666-6666-66--3333-3333-33--| 2x
A|--6666-6666-66--1111-1111-11--2222-2222-22--4444-4444-44--6666-6666-66--1111-1111-11--|
E|--4444-4444-44------------------------------2222-2222-22--4444-4444-44----------------|

e|----------------------------------------------------------|
B|----------------------------------------------------------|
G|--4444-4444-44--------------------------------------------|
D|--4444-4444-44--2222-2222-22--6666-6666-66--2222-2222-22--| 2x
A|--2222-2222-22--2222-2222-22--6666-6666-66--2222-2222-22--|
E|----------------0000-0000-00--4444-4444-44--0000-0000-00--|

Outro:
e|-------------------|
B|-------------------|
G|------4-----4------|
D|----4---4-4---4----| 16x
A|--2----------------|
E|-------------------|

Blink 182 Rocks! They recieve full credit for this song i just tabbed it out.
            
Submit corrections

comments powered by Disqus
↑ Back to top | *Blink 182* Tabs for Down. Lyrics for acoustic guitar and electric guitar. 1 Tablatures and chords are parodies/interpretations of the original songs. You may use it for private study, scholarship, research or language learning purposes only