» » »

*Blink 182*, Dick Lips Tabs (ver.3)

Artists:  A B C D E F G H I J K L M N O P Q R S T U V W X Y Z # 

Dick Lips Tabs (ver.3)

*Blink 182* Tabs
 Rating:
4/5 (4 votes)
Dick Lips lessons Tabs too difficult? Try these video lessons and learn fast
                ~Intro - Play 2 times with a little distortion
E---------------------------------------------------------------------------
B---------------------------------------------------------------------------
G---------------------------------------------------------------------------
D-7-7-7-7-7-7-7-7-7-7-7-7-7-7-7-7-7-7-7-7-7-7-7-7-7-7-7-7-7-7-7-7-----------
A-4-4-4-4-4-4-4-4-5-5-5-5-5-5-5-5-0-0-0-0-0-0-0-0-7-7-7-7-7-7-7-7-----------
E---------------------------------------------------------------------------
~Verse PLay 2 times
E---------------------------------------------------------------------------
B---------------------------------------------------------------------------
G--------------------------7-7-7-7-7-7--------------------------------------
D--7-7-7-7-7-7-7-7-7-7-7-7-7-7-7-7-7-7-9-9-9-9-9-9--------------------------
A--7-7-7-7-7-7-7-7-7-7-7-7-5-5-5-5-5-5-7-7-7-7-7-7--------------------------
E--5-5-5-5-5-5-5-5-5-5-5-5--------------------------------------------------
~ Pre-Chorus (PLay Intro)
~Chorus
E---------------------------------------------------------------------------
B---------------------------------------------------------------------------
G---------------------------------------------------------------------------
D-6-6-7-6-7-6-9-6-7-6-7-6-7-6-9---------------------------------------------
A---------------------------------------------------------------------------
E---------------------------------------------------------------------------
Repeat what you've played so far then:
~Solo
E-----------------------------------------------------------------------
B-----------------------------------------------------------------------
G-----------------------------------------------------------------------
D--7-7-7-7--7-7-7-7--7-7-7-7-7-7-7-7--7-7-7-7--7-7-7-7--7-7-7-7-7-7-7-7-
A--4-4-4-4--5-5-5-5--7-7-7-7-7-7-7-7--4-4-4-4--5-5-5-5--7-7-7-7-7-7-7-7-
E-----------------------------------------------------------------------
 play this 4 times:
E-----------------------------------------------------------------------
B-----------------------------------------------------------------------
G-----7--6-----7-7-7-7--------------------------------------------------
D--7--7--6--2--7-7-7-7--------------------------------------------------
A--7--5--4--2--5-5-5-5--------------------------------------------------
E--5--------0-----------------------------------------------------------

E-----
B-----
G-----
D--7--u figure out how many times to play this just go wit the song
A-----
E-----
Then play chorus and end with this:
E-----
B-----
G--9--
D--7--
A--0--
E-----
            
Submit corrections

comments powered by Disqus
↑ Back to top | *Blink 182* Tabs for Dick Lips. Lyrics for acoustic guitar and electric guitar. Tablatures and chords are parodies/interpretations of the original songs. You may use it for private study, scholarship, research or language learning purposes only