» » »

*Blink 182*, Dammit Tabs (ver.8)

Artists:  A B C D E F G H I J K L M N O P Q R S T U V W X Y Z # 

Dammit Tabs (ver.8)

*Blink 182* Tabs
 Rating:
4/5 (4 votes)
Dammit lessons Tabs too difficult? Try these video lessons and learn fast
                (Full)
***Dammit is by far the best Blink 182 song ever. This is how they play it live,
and how you should play it too. None of the tabs I've seen are as good as this one,
which is the absolute 100% correct way to play this song exactly like Tom does.
Play this along with the CD once or twice and you'll be able to follow along perfectly.***

e |-----------------------------
B |-----------------------------
G |----------------------------- x4
D |------2------2-------2---22-0
A |33-55-----55---00-55---------
E |-------33--------------11----

e |-----------------------------------
B |-----------------------------------
G |5-555555--------------------------- x2
D |5-555555-5-555555-7-777777-3-333333
A |3-333333-5-555555-7-777777-3-333333
E |---------3-333333-5-555555-1-111111
     pm....   ......   ......   ......

It's all right to tell me what you think about me.
I won't try to argue or hold it against you.

e |-----------------------------------
B |-----------------------------------
G |55555555--------------------------- x2
D |55555555-55555555-77777777-33333333
A |33333333-55555555-77777777-33333333
E |---------33333333-55555555-11111111

I know that you're leaving, you must have your reasons.
The season is calling and your pictures are falling down.

e |-----------------------------
B |-----------------------------
G |----------------------------- x2
D |------2------2-------2---22-0
A |33-55-----55---00-55---------
E |-------33--------------11----

e |-----------------------------------
B |-----------------------------------
G |5-555555--------------------------- x2
D |5-555555-5-555555-7-777777-3-333333
A |3-333333-5-555555-7-777777-3-333333
E |---------3-333333-5-555555-1-111111
     pm....   ......   ......   ......

The steps that I retrace, the sad look on your face.
The timing and structure, did you hear he f****d her?

e |-----------------------------------
B |-----------------------------------
G |55555555--------------------------- x2
D |55555555-55555555-77777777-33333333
A |33333333-55555555-77777777-33333333
E |---------33333333-55555555-11111111

A day late, a buck short. I'm writing the report,
on losing and failing, when I move I'm flailing now.

e |-------------------------------------------------------------------	  [----------------]
B |-------------------------------------------------------------------	  [----------------]
G |5555555555555555--------------------------------------------------- x2 [----------------]
D |5555555555555555-5555555555555555-7777777777777777-3333333333333333	  [3333333355555555]
A |3333333333333333-5555555555555555-7777777777777777-3333333333333333	  [3333333355555555]
E |-----------------3333333333333333-5555555555555555-1111111111111111	  [1111111133333333]
									  [**Second verse**]
1 And it's happened once again, I'll turn to a friend.
  Someone that understands, sees through the master plan.
2 But everybody's gone, and I've been here for too long,
  to face this on my own. Well I guess this is growing up.

e |-----------------------------
B |-----------------------------
G |----------------------------- x2
D |------2------2-------2---22-0
A |33-55-----55---00-55---------
E |-------33--------------11----

Well I guess this growing up.********(At end of first time)********

e |-----------------------------------
B |-----------------------------------
G |5-555555--------------------------- x2
D |5-555555-5-555555-7-777777-3-333333
A |3-333333-5-555555-7-777777-3-333333
E |---------3-333333-5-555555-1-111111
     pm....   ......   ......   ......

And maybe I'll see you at a movie sneak preview.
You'll show up and walk by on the arm of that guy.

e |-----------------------------------
B |-----------------------------------
G |55555555--------------------------- x2
D |55555555-55555555-77777777-33333333
A |33333333-55555555-77777777-33333333
E |---------33333333-55555555-11111111

And I'll smile and you'll wave. We'll pretend it's okay.
The charade it won't last. When he's gone I won't come back.

e |-------------------------------------------------------------------	  [----------------]
B |-------------------------------------------------------------------	  [----------------]
G |5555555555555555--------------------------------------------------- x2 [----------------]
D |5555555555555555-5555555555555555-7777777777777777-3333333333333333	  [3333333355555555]
A |3333333333333333-5555555555555555-7777777777777777-3333333333333333	  [3333333355555555]
E |-----------------3333333333333333-5555555555555555-1111111111111111	  [1111111133333333]
									  [**Second verse**]
1 And it'll happen once again, you'll turn to a friend.
  Someone that understands, and sees through the master plan.
2 But everybody's gone, and you've been there for too long,
  to face this on your own. Well I guess this is growing up.

(Bridge) - Let chords ring.
e |----------------------------------
B |----------------------------------
G |5-------7-------10-------12------- x2
D |5-------7-------10-------12-------
A |3-------5-------8--------10-------
E |----------------------------------

Well I guess this growing up.********(At end of second time)********

e |-----------------------------	----------------
B |-----------------------------	----------------
G |----------------------------- x4	5--------------- Hold chord at end.
D |------2------2-------2---22-0	5---------------
A |33-55-----55---00-55---------	3---------------
E |-------33--------------11----	----------------

Well I guess this growing up.********(At end of each time)********
            
Submit corrections

comments powered by Disqus
↑ Back to top | *Blink 182* Tabs for Dammit. Lyrics for acoustic guitar and electric guitar. Tablatures and chords are parodies/interpretations of the original songs. You may use it for private study, scholarship, research or language learning purposes only