» » »

*Blink 182*, Dammit Tabs (ver.3)

Artists:  A B C D E F G H I J K L M N O P Q R S T U V W X Y Z # 

Dammit Tabs (ver.3)

*Blink 182* Tabs
Rating:
0/5 (0 votes)
Dammit lessons Tabs too difficult? Try these video lessons and learn fast
                (1)
Dammit by Blink 182
We are playing this song at the talent show and this is how we are playing it on
guitar. The song's easy and cool to play so have fun with it. 

Intro:
|--------------------------------------------------------|
|--------------------------------------------------------|
|--------------------------------------------------------|
|--------0-0-2-------0-0-2-----0-0-2-------2-2-0---------| 
|---3-3---------------------0-0--------------------------|      
|--------------3-3-------------------1-1-----------------|

Verse
|--------------------------------------------------------|
|--------------------------------------------------------|
|5xxxxxx---------------------5xxxxxx---------------------|
|5xxxxxx5xxxxxx7xxxxxx3xxxxxx5xxxxxx5xxxxxx7xxxxxx3xxxxxx|
|3xxxxxx5xxxxxx7xxxxxx3xxxxxx3xxxxxx5xxxxxx7xxxxxx3xxxxxx|
|-------3xxxxxx5xxxxxx1xxxxxx-------3xxxxxx5xxxxxx1xxxxxx|

|--------------------------------------------------------|
|--------------------------------------------------------|
|555555----------------------555555----------------------|
|555555-555555-777777-333333-555555-555555-777777-333333-|
|333333-555555-777777-333333-333333-555555-777777-333333-|
|-------333333-555555-111111--------333333-555555-111111-|

Chorus
|--------------------------------------------------------|
|--------------------------------------------------------|
|555555----------------------555555----------------------|
|555555-555555-777777-333333-555555-555555-777777-333333-|
|333333-555555-777777-333333-333333-555555-777777-333333-|
|-------333333-555555-111111--------333333-555555-111111-|

Solo
|---0---------0----0--------0-------0---0--------0---0-------0------0---|
|-----1-----3---1----1----3----1--3---1---1----3---1---1---3---1--3---1-|
|-------0--------------0--------------------0------------0--------------|
|-----------------------------------------------------------------------|
|-----------------------------------------------------------------------|
|-----------------------------------------------------------------------|

Or, for live version:
|-----------------------------------------------------------------------|
|-----------------------------------------------------------------------|
|5---L------------------------------------------------------------------|
|5---E--RING--5---L--------7---L--------3---L---------------------------|
|3---T--------5---E--RING--7---E--RING--3---E--RING---------------------|
|-------------3---T--------5---T--------1---T---------------------------|

Layout:    ----|
Intro x4       |
Verse          |
Intro x2       |
Verse          |--- Distortion On
Chorus         |
Intro x2       |
Verse          |
Chorus      ---|
Solo (Distortion off) 
Intro x4    -------- Distortion On

(Take your pants off!)
It's alright to tell me what you think about me
I won't try to argue or hold it against you
I know that you're leaving you must have your reasons
The season is calling and your pictures are falling down

The steps that I retrace a sad look on your face
The timing and structure did you hear he f*cked her
A day late a buck short I'm writing the report
I'm losing and failing when I move I'm flailing now

And it's happened once again
I'll turn to a friend
Someone that understands
Sees through the master plan
But everybody's gone
And I've been here for too long
To face this on my own
Well I guess this is growing up

Well I guess this is growing up

And maybe I'll see you at a movie sneak preview
You'll show up and walk by on the arm of that guy
And I'll smile and you'll wave we'll pretend it's okay
The charade it won't last when he's gone I won't come back

And it's happened once again
I'll turn to a friend
Someone that understands
And sees through the master plan
But everybody's gone
And you've been here for too long
To face this on your own
Well I guess this is growing up

Well, I guess this is growing up
Well, I guess this is growing up
Well, I guess this is growing up
Well, I guess this is growing up 

Well thats it, it's a simple song, if you're dumb enough 
to not put the parts from the other songs together (some of them 
don't have the layout, solo or riff right) then this tab's 4 U.
            

comments powered by Disqus
↑ Back to top | *Blink 182* Tabs for Dammit. Lyrics for acoustic guitar and electric guitar. Tablatures and chords are parodies/interpretations of the original songs. You may use it for private study, scholarship, research or language learning purposes only