» » »

*Blink 182*, Dammit Tabs (ver.6)

Artists:  A B C D E F G H I J K L M N O P Q R S T U V W X Y Z # 

Dammit Tabs (ver.6)

*Blink 182* Tabs
Rating:
0/5 (0 votes)
Dammit lessons Tabs too difficult? Try these video lessons and learn fast
                (AlternateIntros)
This way makes you look good
   1)------------------------------------------------------                                                                            
   2)------------------------------------------------------
   3)------------------------------------------------------
   4)---------2---------2----------2-----22----------------
   5)-33--55--------55---------55------------5-------------
   6)-----------33---------55--------11--------------------
                         OR
   This makes you look good also
   1)------------------------------------------------------
   2)------------------------------------------------------
   3)------------------------------------------------------
   4)---------------------------------------22-------------
   5)--33--55--7------55--7------55--77---------33---------
   6)-------------33---------55----------11----------------
                          OR
   this makes you look like a beginner or just suck
   1)------------------------------------------------------
   2)------------------------------------------------------
   3)------------------------------------------------------
   4)------00--2------00--2------00--2------22--0----------
   5)--33--------------------00----------------------------
   6)-------------33--------------------11-----------------
                          OR
   This way makes it look wierd in a cool way
   1)-
   2)-
   3)-
   4)---------0--2---------0--2-----------0--2------22--00--
   5)--33--5------------5-----------0--5--------------------
   6)---------------33-----------5--------------11----------      
                           OR
   This is how Tom plays it in the Dammit music video
   1)-
   2)-
   3)-
   4)-------------------------------------------------------
   5)------55--7------55--7--00--55--7------77-5------------
   6)--88---------33--------------------11------------------  


   If you are good at guitar you could put them all in one
            
Submit corrections

comments powered by Disqus
↑ Back to top | *Blink 182* Tabs for Dammit. Lyrics for acoustic guitar and electric guitar. Tablatures and chords are parodies/interpretations of the original songs. You may use it for private study, scholarship, research or language learning purposes only