» » »

Carousel Bass tabs (ver.1)

Artists:  A B C D E F G H I J K L M N O P Q R S T U V W X Y Z # 

Carousel Bass tabs (ver.1)

*Blink 182*
Rating:
0/5 (0 votes)

Hard to play? Try these video lessons and learn fast.
                (Intro1)



G-------11-11-12-14-12-11----------------------------------------------------
D---12--------------------12----11-11-12-14-12-11-------13-13-14-16-14-13----
A----------------------------12-------------------12-14-------------------14-
E----------------------------------------------------------------------------

G----------------------------
D---------12-------12----12--
A---10-10----10-10----10-----
E----------------------------

And thats the Intro, i know the rest of the song but i dont feel like tab-ing it. :)
            
Hard to play? Try these video lessons and learn fast. | Correct




comments powered by Disqus
↑ Back to top | Tablatures and chords are parodies/interpretations of the original songs. You may use it for private study, scholarship, research or language learning purposes only