>
 >
Carousel Cheshire Cat 2

Carousel Cheshire Cat 2 Bass Tabs

*Blink 182* - Carousel Cheshire Cat 2 chords, tabs, tablatures, lyrics

Guitar lessons | Add/correct | Request | Top 50 tabs Artists:  A B C D E F G H I J K L M N O P Q R S T U V W X Y Z 0-9

Carousel Cheshire Cat 2 Bass Tabs – *Blink 182*

CD, Sheet music, Poster

Do you like Carousel Cheshire Cat 2? Share with your friends now
Bass TabsBass Tabs v2Bass Tabs v3
( /-slide down, \-slide up, * stacato, h-hammer, p-pull off)

Intro pt. 1
G-14-14-14--12-12-12--11--14-14-14--12-12-12--11--12-12-12--11-11-11--9----------------------|
D-0--0--0---0--0--0---0---0--0--0---0--0--0---0---0--0--0---0--0--0---0-11-11-11--12-12-12-14|
A-----------------------------------------------------------------------0--0--0---0--0--0--0-|
E--------------------------------------------------------------------------------------------|
~~~~~~~~~~~~~~~~~~~~~~~~~~~~~~~~~~~~~~~~~~~~~~~~~~~~~~~~~~~~~~~~~~~~~~~~~~~~~~~~~~~~~~~~~~~~~~~~~~~~

Intro pt.2
G-12-12-12--11-11-11--9--12-12-12--11-11-11--9--12-12-12--11-11-11--9--7-|
D-9--9--9---9--9--9---9--9--9--9---9--9--9---9--9--9--9---9--9--9---9--7-|
A------------------------------------------------------------------------|
E------------------------------------------------------------------------|
~~~~~~~~~~~~~~~~~~~~~~~~~~~~~~~~~~~~~~~~~~~~~~~~~~~~~~~~~~~~~~~~~~~~~~~~~~~~~~~~~~~~~~~~~~~~~~~~~~~~~

Intro pt. 3(1)
G---11-11-12-14-12-11------6-6-7-9-7-6-----9-9-11-12-11-9-11-----7-----7---7--------|
D-0-------------------12/7-------------7/9-------------------5-5---5-5---5----------|
A-----------------------------------------------------------------------------------|
E-----------------------------------------------------------------------------------|

(2)
G-11-11-11-11-/9-9-9-9-\11-11-11-11-/7-7-7-7--11-11-11-11-/9-9-9-9-\11-11-11-11-/7-7-7-7--|
D-0--0--0--0--/7-7-7-7-\9--9--9--9--/5-5-5-5--0--0--0--0--/7-7-7-7-\9--9--9--9--/5-5-5-5--|
A------------------------------------------------------------------------------------------|
E------------------------------------------------------------------------------------------|
~~~~~~~~~~~~~~~~~~~~~~~~~~~~~~~~~~~~~~~~~~~~~~~~~~~~~~~~~~~~~~~~~~~~~~~~~~~~~~~~~~~~~~~~~~~~~~~~~~~~~

Verse
G---------------------------------------|
D-------------------------------55h7p5-4|
A-55555555--00000000--------------------|
E---------------------77777777----------|
~~~~~~~~~~~~~~~~~~~~~~~~~~~~~~~~~~~~~~~~~~~~~~~~~~~~~~~~~~~~~~~~~~~~~~~~~~~~~~~~~~~~~~~~~~~~~~~~~~~~~

Chorus
G---------------------------------------|
D---------------------77777777p5h7p5-4--|
A-55555555--77777777--------------------|
E---------------------------------------|
~~~~~~~~~~~~~~~~~~~~~~~~~~~~~~~~~~~~~~~~~~~~~~~~~~~~~~~~~~~~~~~~~~~~~~~~~~~~~~~~~~~~~~~~~~~~~~~~~~~~~

Riff
G-11-11-11-11--/9-9-9-9--\11-11-11--/9--/7-7-7-7---11-11-11-11--/9-9-9-9--\11-11-11--/9--/7-7-7-7--|
D-0--0--0--0---/7-7-7-7--\9--9--9---/7--/5-5-5-5---0--0--0--0---/7-7-7-7--\9--9--9---/7--/5-5-5-5--|
A--------------------------------------------------------------------------------------------------|
E--------------------------------------------------------------------------------------------------|
~~~~~~~~~~~~~~~~~~~~~~~~~~~~~~~~~~~~~~~~~~~~~~~~~~~~~~~~~~~~~~~~~~~~~~~~~~~~~~~~~~~~~~~~~~~~~~~~~~~~~

Riff 2
G--------------|
D--------------|
A-5*--0*--2*---|
E-----------3*-|

order
Intro pt 1 x1
intro pt 2 x1
intro pt 1 x1
intro pt 2 x1
intro pt 3(1) x2
intro pt 3(2) x2
break
intro pt 3(2) x2
verse x4
Chorus x4
verse x1
verse x4
riff  x1
riff 2 x2
verse x1
chorus x4
End on A5





Comments


Popular *Blink 182* tabs & chords
Always 4 Bass Tabs
Satan Tune Bass Tabs
A New Hope Drum Tabs
Dammit 7 Tabs
Dammit Riff Tabs
Dead Man's Curve Tabs
Dick Lips Tabs
Dysentery Gary 1 Tabs
Emo Tabs
First Date 5 Tabs


Song lyrics



↑ Back to top | Tablatures and chords are parodies/interpretations of the original songs. You may use it for private study, scholarship, research or language learning purposes only
© 2014 AZChords.com Contact us | Privacy policy | DMCA | Add/correct tabs | Request tabs | Top 50 tabs