» » »

Carousel Bass tabs (ver.16)

Artists:  A B C D E F G H I J K L M N O P Q R S T U V W X Y Z # 

Carousel Bass tabs (ver.16)

*Blink 182*
Rating:
0/5 (0 votes)

Hard to play? Try these video lessons and learn fast.
                |-------------------------------------------------------|
|-------------------------------------------------------|

Bass Tabz
Blink 182
Cheshire Cat
Carousel

Intro
G|-14-14-14-12-12-12-11-11-->-14-14-14-12-12-12-11-11-->
D|-0--0--0--0--0--0--0--0---|-0--0--0--0--0--0--0--0---|
A|--------------------------|--------------------------|
E|--------------------------|--------------------------|

G>-6--6--6--7--7--7--9--9--->-6--6--6--7--7--7--9--9--->
D|-0--0--0--0--0--0--0--0---|-0--0--0--0--0--0--0--0---|
A|--------------------------|--------------------------|
E|--------------------------|--------------------------|

G>-12-12-12-11-11-11-9--9--->-12-12-12-11-11-11-9--9--->
D|-0--0--0--0--0--0--0--0---|-0--0--0--0--0--0--0--0---|
A|--------------------------|--------------------------|
E|--------------------------|--------------------------|

G>-7--7--7--7--7--7--7--7--->-7--7--7--7--7--7--7--7--->
D|-0--0--0--0--0--0--0--0---|-0--0--0--0--0--0--0--0---|
A|--------------------------|--------------------------|
E|--------------------------|--------------------------|

Intro

Bass Solo
G|-11-11-11-12-14-12-11-----|----6--6--7--9--7--6------|
D|-0--------------------12-->-7--------------------7--->
A|--------------------------|--------------------------|
E|--------------------------|--------------------------|

G|----8--8--9--11-9--8------|-------6--------6-----6---|
D>-9--------------------9--->-5--5-----5--5-----5--5---|
A|--------------------------|--------------------------|
E|--------------------------|--------------------------|

Bass Solo

Chorus
G|-11----11----11----11-11--|-9-----9-----9-----9--9---|
D|-0-----0-----0-----0--0---|-7-----7-----7-----7--7---|
A|--------------------------|--------------------------|
E|--------------------------|--------------------------|

G|-11----11----11----11-11--|-7-----7-----7-----7--7---|
D|-9-----9-----9-----9--9---|-5-----5-----5-----5--5---|
A|--------------------------|--------------------------|
E|--------------------------|--------------------------|

Chorus
Chorus
Chorus

Verse 1
G|--------------------------|--------------------------|
D|--------------------------|--------------------------|
A|-5--5--5--5--5--5--5--5---|--------------------------|
E|--------------------------|-5--5--5--5--5--5--5--5---|

G|--------------------------|--------------------------|
D|--------------------------|--------------------------|
A|--------------------------|--------------------------|
E|-7--7--7--7--7--7--7--7---|-3--3--3--3--3--3--3--3---|

Verse 1
Verse 1
Verse 1
Verse 1
Verse 1
Verse 1
Verse 1
Verse 1
Verse 1

Verse 2
G|--------------------------|--------------------------|
D|--------------------------|--------------------------|
A|-5--5--5--5--5--5--5--5---|-7--7--7--7--7--7--7--7---|
E|--------------------------|--------------------------|

G|--------------------------|--------------------------|
D|--------------------------|--------------------------|
A|--------------------------|--------------------------|
E|-7--7--7--7--7--7--7--7---|-3--3--3--3--3--3--3--3---|

Verse 2
Verse 2

Post-Verse 2
G|--------------------------|--------------------------|
D|--------------------------|--------------------------|
A|-5--5--5--5--5--5--5--5---|-7--7--7--7--7--7--7--7---|
E|--------------------------|--------------------------|

G|--------------------------|--------------------------|
D|--------------------------|--------------------------|
A|--------------------------|--------------------------|
E|-7------------------------|-3-----3-----3-----3------|

Verse 1
Verse 1
Verse 1
Verse 1

Rest
G|--------------------------|--------------------------|
D|--------------------------|--------------------------|
A|--------------------------|--------------------------|
E|--------------------------|--------------------------|

Rest
Rest
Rest

Bridge
G|--------------------------|--------------------------|
D|--------------------------|--------------------------|
A|-5------------------------|--------------------------|
E|--------------------------|-5------------------------|

G|--------------------------|--------------------------|
D|--------------------------|--------------------------|
A|--------------------------|--------------------------|
E|-7------------------------|-3------------------------|

G|--------------------------|--------------------------|
D|--------------------------|--------------------------|
A|-5------------------------|--------------------------|
E|--------------------------|-5------------------------|

G|--------------------------|--------------------------|
D|--------------------------|--------------------------|
A|--------------------------|--------------------------|
E|-7-----7-----7-----7------|-3-----3-----3-----3------|

Verse 1
Verse 1
Verse 2
Verse 2
Verse 2
Post-Verse 2

Outro
G|--------------------------|
D|--------------------------|
A|-5~~~~~~~~~~~~~~~~~~~~~~~-|
E|--------------------------|
            
Hard to play? Try these video lessons and learn fast. | Correct




comments powered by Disqus
↑ Back to top | Tablatures and chords are parodies/interpretations of the original songs. You may use it for private study, scholarship, research or language learning purposes only