>
 >
Cacophony 1

Cacophony 1 Guitar Tabs

*Blink 182* - Cacophony 1 chords, tabs, tablatures, lyrics

Guitar lessons | Add/correct | Request | Top 50 tabs Artists:  A B C D E F G H I J K L M N O P Q R S T U V W X Y Z 0-9

Cacophony 1 Guitar Tabs – *Blink 182*

CD, Sheet music, Poster

Do you like Cacophony 1? Share with your friends now
Bass TabsBass Tabs v2ChordsDrum TabsDrum Tabs v2TabsTabs v2Tabs v3Tabs v4Tabs v5
Bass Intro 2x
G|------------------------------------|
D|------------------------------------|
A|-----3--------3--------7--------3---|
E|-0-0---0--3-3---3--5-5---5--1-1---1-|
  
  Guitar Intro 2x
e|--------------------|-------------------|
B|--------------------|-------------------|
G|-5-5-x-5-5-5-10-10--|-7-5-5-5-5-x-5-4-5-|
D|-x-x-x-x-x-x--x--x--|-x-x-x-x-x-x-x-x-x-|
A|-3-3-x-3-3-3--8--8--|-5-3-3-3-3-x-3-2-3-|
E|--------------------|-------------------|
  
  Chorus 1x
e|---------------------------------------------------|
B|---------------------------------------------------|
G|-2-2-2-2-2-2-2-2------------------2-2-2-2-2-2-2-2--|
D|-2-2-2-2-2-2-2-2--3-3--3-3-3-3-3--2-2-2-2-2-2-2-2--|
A|-0-0-0-0-0-0-0-0--3-3--3-3-3-3-3--0-0-0-0-0-0-0-0--|
E|------------------1-1--1-1-1-1-1-------------------|
  
e|----------------------------------|
B|----------------------------------|
G|-5/-12--12--12--------------------|
D|-x---x---x---x---3-3-3-3-3-3-3-3--|
A|-3/-10--10--10---3-3-3-3-3-3-3-3--|
E|-----------------1-1-1-1-1-1-1-1--|
 
 Verse 4x
e|-------------------|--------------------|
B|-------------------|--------------------|
G|-------------------|--------------------|
D|-------------------|---2--2h3h2----2----|
A|-----3--------3----|-0----------3----3--|
E|-0-0---0--3-3---3--|--------------------|

  Chorus 1x
e|---------------------------------------------------|
B|---------------------------------------------------|
G|-2-2-2-2-2-2-2-2------------------2-2-2-2-2-2-2-2--|
D|-2-2-2-2-2-2-2-2--3-3--3-3-3-3-3--2-2-2-2-2-2-2-2--|
A|-0-0-0-0-0-0-0-0--3-3--3-3-3-3-3--0-0-0-0-0-0-0-0--|
E|------------------1-1--1-1-1-1-1-------------------|
  
e|----------------------------------|
B|----------------------------------|
G|-5/-12--12--12--------------------|
D|-x---x---x---x---3-3-3-3-3-3-3-3--|
A|-3/-10--10--10---3-3-3-3-3-3-3-3--|
E|-----------------1-1-1-1-1-1-1-1--|

  Guitar Intro 2x
e|--------------------|-------------------|
B|--------------------|-------------------|
G|-5-5-x-5-5-5-10-10--|-7-5-5-5-5-x-5-4-5-|
D|-x-x-x-x-x-x--x--x--|-x-x-x-x-x-x-x-x-x-|
A|-3-3-x-3-3-3--8--8--|-5-3-3-3-3-x-3-2-3-|
E|--------------------|-------------------|

 Verse 4x
e|-------------------|--------------------|
B|-------------------|--------------------|
G|-------------------|--------------------|
D|-------------------|---2--2h3h2----2----|
A|-----3--------3----|-0----------3----3--|
E|-0-0---0--3-3---3--|--------------------|

  
 Interlude 2x
e|-------------------------------------------------------------|
B|-------------------------------------------------------------|
G|-5--5-5-5-5-5-5---5--5-5-5-5-5-5---5--5-5-5-5-5--------------|
D|-5--5-5-5-5-5-5---5--5-5-5-5-5-5---5--5-5-5-5-5--3/5---------|
A|-3--3-3-3-3-3-3---3--3-3-3-3-3-3---3--3-3-3-3-3--3/5---------|
E|------------------------------------------------------1---3--|
  
  Interlude Pt. 2 3x
e|-------------------------------------------------------------------|
B|-------------------------------------------------------------------|
G|-5-5-5-5-5-5-5-5---------------------------------------------------|
D|-5-5-5-5-5-5-5-5--2-2-2-2-2-2-2-2--3-3-3-3-3-3-3-3-3-3-3-3-3-3-3-3-|
A|-3-3-3-3-3-3-3-3--2-2-2-2-2-2-2-2--3-3-3-3-3-3-3-3-3-3-3-3-3-3-3-3-|
E|------------------0-0-0-0-0-0-0-0--1-1-1-1-1-1-1-1-1-1-1-1-1-1-1-1-|

  Interlude Pt. 3 1x
e|--------------------------------------------------------------------|
B|--------------------------------------------------------------------|
G|-5-5-5-5-5-5-5-5------------------------------------5-5-5-5-5-5-5-5-|
D|-5-5-5-5-5-5-5-5--2-2-2-2-2-2-2-2--3-3-3-3-3-3-3-3--x-x-x-x-x-x-x-x-|
A|-3-3-3-3-3-3-3-3--2-2-2-2-2-2-2-2--3-3-3-3-3-3-3-3--3-3-3-3-3-3-3-3-|
E|------------------0-0-0-0-0-0-0-0--1-1-1-1-1-1-1-1------------------|

 Interlude 2x
e|-------------------------------------------------------------|
B|-------------------------------------------------------------|
G|-5--5-5-5-5-5-5---5--5-5-5-5-5-5---5--5-5-5-5-5--------------|
D|-5--5-5-5-5-5-5---5--5-5-5-5-5-5---5--5-5-5-5-5--3/5---------|
A|-3--3-3-3-3-3-3---3--3-3-3-3-3-3---3--3-3-3-3-3--3/5---------|
E|------------------------------------------------------1---3--|

  Verse Pt. 2
e|----------------------------------------------------------------------------|
B|----------------------------------------------------------------------------|
G|-9-9-9-9-9-9-9-9--10-10-10-10-10-10-10-10--5-5-5-5-5-5-5-5--2-2-2-2-2-2-2-2-|
D|-9-9-9-9-9-9-9-9--10-10-10-10-10-10-10-10--5-5-5-5-5-5-5-5--2-2-2-2-2-2-2-2-|
A|-7-7-7-7-7-7-7-7---8--8--8--8--8--8--8--8--3-3-3-3-3-3-3-3--0-0-0-0-0-0-0-0-|
E|----------------------------------------------------------------------------|

e|----------------------------------------------------------------------------|
B|----------------------------------------------------------------------------|
G|-9-9-9-9-9-9-9-9--10-10-10-10-10-10-10-10--x-x-x-5-x-x-x-5--x-x-x-5-x-x-x-5-|
D|-9-9-9-9-9-9-9-9--10-10-10-10-10-10-10-10--x-x-x-5-x-x-x-5--x-x-x-5-x-x-x-5-|
A|-7-7-7-7-7-7-7-7---8--8--8--8--8--8--8--8--x-x-x-3-x-x-x-3--x-x-x-3-x-x-x-3-|
E|----------------------------------------------------------------------------|

e|----------------------------------------------------------------------------|
B|----------------------------------------------------------------------------|
G|-9-9-9-9-9-9-9-9--10-10-10-10-10-10-10-10--5-5-5-5-5-5-5-5--2-2-2-2-2-2-2-2-|
D|-9-9-9-9-9-9-9-9--10-10-10-10-10-10-10-10--5-5-5-5-5-5-5-5--2-2-2-2-2-2-2-2-|
A|-7-7-7-7-7-7-7-7---8--8--8--8--8--8--8--8--3-3-3-3-3-3-3-3--0-0-0-0-0-0-0-0-|
E|----------------------------------------------------------------------------|

e|---------------------------|
B|---------------------------|
G|-5-5-5--5-5--4---4--4--5---|
D|-x-x-x--x-x--x---x--x--x---|
A|-3-3-3--3-3--2---2--2--3---|
E|---------------------------|
  
 Interlude 4x
e|-------------------------------------------------------------|
B|-------------------------------------------------------------|
G|-5--5-5-5-5-5-5---5--5-5-5-5-5-5---5--5-5-5-5-5--------------|
D|-5--5-5-5-5-5-5---5--5-5-5-5-5-5---5--5-5-5-5-5--3/5---------|
A|-3--3-3-3-3-3-3---3--3-3-3-3-3-3---3--3-3-3-3-3--3/5---------|
E|------------------------------------------------------1---3--|

  Chorus 1x
e|---------------------------------------------------|
B|---------------------------------------------------|
G|-2-2-2-2-2-2-2-2------------------2-2-2-2-2-2-2-2--|
D|-2-2-2-2-2-2-2-2--3-3--3-3-3-3-3--2-2-2-2-2-2-2-2--|
A|-0-0-0-0-0-0-0-0--3-3--3-3-3-3-3--0-0-0-0-0-0-0-0--|
E|------------------1-1--1-1-1-1-1-------------------|
  
e|----------------------------------|
B|----------------------------------|
G|-5/-12--12--12--------------------|
D|-x---x---x---x---3-3-3-3-3-3-3-3--|
A|-3/-10--10--10---3-3-3-3-3-3-3-3--|
E|-----------------1-1-1-1-1-1-1-1--|





Comments


Popular *Blink 182* tabs & chords
Boring Bass Tabs
Emo 2 Bass Tabs
All The Small Things 2 Chords
Always 1 Chords
Adam Song Tabs
Adams Song 7 Tabs
Aliens Exist 7 Tabs
Damn It 1 Tabs
Happy Holidays, You Bastard 1 Tabs
Heres Your Letter 2 Tabs


Song lyrics



↑ Back to top | Tablatures and chords are parodies/interpretations of the original songs. You may use it for private study, scholarship, research or language learning purposes only
© 2014 AZChords.com Contact us | Privacy policy | DMCA | Add/correct tabs | Request tabs | Top 50 tabs