» » »

Asthenia Tabs (ver.6)

Artists:  A B C D E F G H I J K L M N O P Q R S T U V W X Y Z # 

Asthenia Tabs (ver.6)

*Blink 182*
Rating:
0/5 (0 votes)

Hard to play? Try these video lessons and learn fast.
                Words and Music by Travis Barker, Tom De Longe and Mark Hoppus
Fast Rock = 175bpm


-Drop D Tuning


Intro (0:51)
|-----------------|-----------------|-----------------|-----------------|
|--------------7--|-----------------|-----------------|-----------------|
|-7---------------|-----------------|-----------------|-7------------6--|
|-------0---------|-----------------|-----------------|-------0---------|
|-----------------|-----------------|-----------------|-----------------|
|-----------------|-----------------|-----------------|-----------------|

Verse (dist.)
|-----------------|-----------------|-----------------|-----------------|
|-----------------|-----------------|-----------------|-----------------|
|-7-7-7-7-7-7-7-7-|-7-7-7-7-7-7-7-7-|-7-7-7-7-7-7-7-7-|-6-6-6-6-6-6-6-6-|
|-0-0-0-0-0-0-0-0-|-0-0-0-0-0-0-0-0-|-0-0-0-0-0-0-0-0-|-x-x-x-x-x-x-x-x-|
|-5-5-5-5-5-5-5-0-|-4-4-4-4-4-4-4-0-|-x-x-x-x-x-x-x-x-|-4-4-4-4-4-4-4-4-|
|-----------------|-----------------|-5-5-5-5-5-5-5-5-|-3-3-3-3-3-3-3-3-|

Bridge
|-----------------|-----------------|-----------------|-----------------|
|-----------------|-----------------|-----------------|-----------------|
|-7-7-6-6-7-7-9-9-|-7-7-6-6-7-7-9-9-|-7-7-6-6-7-7-9-9-|-7-7-6-6-7-7-9-9-|
|-x-x-x-x-x-x-x-x-|-x-x-x-x-x-x-x-x-|-x-x-x-x-x-x-x-x-|-x-x-x-x-x-x-x-x-|
|-5-5-4-4-5-5-7-7-|-5-5-4-4-5-5-7-7-|-5-5-4-4-5-5-7-7-|-5-5-4-4-5-5-7-7-|
|-----------------|-----------------|-----------------|-----------------|

|-----------------|-----------------|
|-----------------|-----------------|
|-7-7-6-6-7-7-9-9-|-7-7-6-6---------|
|-x-x-x-x-x-x-x-x-|-x-x-x-x---------|
|-5-5-4-4-5-5-7-7-|-5-5-4-4-0-0-0-0-|
|-----------------|---------0-0-0-0-|
                          PM........

Chorus
|-----------------|-----------------|-----------------|-----------------|
|-----------------|-----------------|-----------------|-----------------|
|-----------------|-----------------|-----------------|-----------------|
|-----0---0-------|-0---0-------0---|-----0---0-------|-0---0-------0---|
|-----5---5-------|-5---5-------5---|-----5---5-------|-4---4-------4---|
|-2-2---------3-3-|---------3-3---0-|-5-5---------5-5-|---------5-5---0-|

|-----------------|-----------------|-----------------|-----------------|
|-----------------|-----------------|-----------------|-----------------|
|-----------------|-----------------|-----------------|-----------------|
|-----0---0-------|-0---0-------0---|-----0---0-------|-0---------------|
|-----5---5-------|-5---5-------5---|-----5---5-------|-4---------------|
|-2-2---------3-3-|---------3-3---0-|-5-5---------5-5-|-0---------------|

Chorus 2
|-----------------|-----------------|-----------------|-----------------|
|-----------------|-----------------|-----------------|-----------------|
|-----------------|-----------------|-----------------|-----------------|
|-----0---0-------|-0---0-------0---|-----0---0-------|-0---0-------0---|
|-----5---5-------|-5---5-------5-0-|-----5---5-------|-4---4-------4-0-|
|-2-2---------3-3-|---------3-3-----|-5-5---------5-5-|---------5-5-----|

|-----------------|-----------------|-----------------|-----------------|
|-----------------|-----------------|-----------------|-----------------|
|-----------------|-----------------|-----------------|-----------------|
|-----0---0-------|-0---0-------0---|-----0---0-------|-0---0-------0---|
|-----5---5-------|-5---5-------5-0-|-----5---5-------|-4---4-------4-0-|
|-2-2---------3-3-|---------3-3-----|-5-5---------5-5-|---------5-5-----|

Interlude                                   (1/2)
|-----------------|-----------------|---------^-------|-----------------|
|-----------------|-----------------|---------^-------|-----------------|
|-7-7-7-7-7-7-7-7-|-7-7--7-7--------|-7-7-7-77^-7-7-7-|-7-7--7-7--------|
|-x-x-x-x-x-x-x-x-|-x-x--x-x--------|-x-x-x-xx^-x-x-x-|-x-x--x-x--------|
|-5-5-5-5-5-5-5-5-|-5-5--5-5--------|-5-5-5-55^-5-5-5-|-5-5--5-5--------|
|-----------------|-----------------|-----------------|-----------------|
                                     (1/2)          (1/2)
|------------------------|-----------^-^-^--|---------^-------|-----------------|
|------------------------|-----------^-^-^--|---------^-------|-----------------|
|-11-11-11-11-11-11-11-11|-11-9--9-7-^-^-^--|-7-7---77^-7-7-7-|-7-7--7-7--------|
|-x--x--x--x--x--x--x--x-|-x--x--x-x-^-^-^--|-x-x---xx^-x-x-x-|-x-x--x-x--------|
|-9--9--9--9--9--9--9--9-|-9--7--7-5-^5^5^5-|-5-5---55^-5-5-5-|-5-5--5-5--------|
|------------------------|------------------|-----------------|-----------------|

|--------------------------|--------------------------|----------------------------|
|--------------------------|--------------------------|----------------------------|
|--------------------------|--------------------------|----------------------------|
|--------------------------|--------------------------|---4-4-4-4------------------|
|-5-5-5-5/9-9-9-9-10-10-10-|-10\7-7-7-7-7-7-7---------|---5-5-5-5/9-9-9-9-10-10-10-|
|-0-0-0-0------------------|------------------0-0-0-0-|----------------------------|
PM.......                                   PM................... 

|--------------------------|----------------------------|--------------------------|
|--------------------------|----------------------------|--------------------------|
|--------------------------|----------------------------|--------------------------|
|--------------------------|---4-4-4-4------------------|--------------------------|
|-10\7-7-7-7-7-7-7---------|---5-5-5-5/9-9-9-9-10-10-10-|-10\7-7-7-7-7-7-7---------|
|------------------0-0---0-|-0--------------------------|------------------0-0-0-0-|
                 PM...................                                   PM........

|----------------------------|--------------------------|
|----------------------------|--------------------------|
|----------------------------|--------------------------|
|---4-4-4-4------------------|--------------------------|
|---5-5-5-5/9-9-9-9-10-10-10-|-10\7-7-7-7-7-7-7---------|
|----------------------------|------------------0-0---0-|
PM.........                                   PM........

|--------|--------|--------|--------|--------|--------|--------|--------|
|--------|--------|--------|--------|--------|--------|--------|--------|
|--------|--------|--------|--------|--------|--------|--------|--------|
|-0~~~~~~|~~~~~~~~|~-~-~-~-|~--~--~-|-~--~--~|---~---~|---~---~|-~------|
|-0~~~~~~|~~~~~~~~|~-~-~-~-|~--~--~-|-~--~--~|---~---~|---~---~|-~------|
|-0~~~~~~|~~~~~~~~|~-~-~-~-|~--~--~-|-~--~--~|---~---~|---~---~|-~------|

Outro
|-----------------|-----------------|-----------------|-----------------|
|-----------------|-----------------|-----------------|-----------------|
|-7-7-6-6-7-7-9-9-|-7-7-6-6-7-7-9-9-|-7-7-6-6-7-7-9-9-|-7-7-6-6-7-7-9-x-|
|-x-x-x-x-x-x-x-x-|-x-x-x-x-x-x-x-x-|-x-x-x-x-x-x-x-x-|-x-x-x-x-x-x-x-x-|
|-5-5-4-4-5-5-7-7-|-5-5-4-4-5-5-7-7-|-5-5-4-4-5-5-7-7-|-5-5-4-4-5-5-7-x-|
|-----------------|-----------------|-----------------|-----------------|

|-----------------|-----------------|
|-----------------|-----------------|
|-2~~~~~~~~~~~~~~~|-----------------|
|-0~~~~~~~~~~~~~~~|-----------------|
|-0~~~~~~~~~~~~~~~|-----------------|
|-0~~~~~~~~~~~~~~~|-*-------*>>>>>>>|
                    ^fdbk.  ^roll back vol.


Intro  x2
Verse  x4
Bridge  x2
Chorus 1
Intro  x2
Verse  x2
Bridge  x2
Chorus 2
Chorus 1
Interlude
Chorus 2
Chorus 1
Bridge
Outro
            
Hard to play? Try these video lessons and learn fast. | Correct




comments powered by Disqus
↑ Back to top | Tablatures and chords are parodies/interpretations of the original songs. You may use it for private study, scholarship, research or language learning purposes only