» » »

*Blink 182*, Asthenia Tabs (ver.2)

Artists:  A B C D E F G H I J K L M N O P Q R S T U V W X Y Z # 

Asthenia Tabs (ver.2)

*Blink 182* Tabs
 Rating:
4/5 (4 votes)
Asthenia lessons Tabs too difficult? Try these video lessons and learn fast
1
                Intro:
e|---------------------------|
B|-----7------------7--------|
G|-7------7-----7------7-----|
D|---7------7-----7------7---|
A|------------5------------5-|
E|---------------------------|

Pre-Chorus:
e|-------------------------------------------------------|
B|-------------------------------------------------------|
G|-7\6/7/9--7\6/7/9--7\6/7/9--7\6/7/9--7\6/7/9--7\6-6666-|
D|-x-x-x-x--x-x-x-x--x-x-x-x--x-x-x-x--x-x-x-x--x-x-xxxx-| x1
A|-5\4/5/7--5\4/5/7--5\4/5/7--5\4/5/7--5\4/5/7--5\4-4444-|
E|-------------------------------------------------------|
PM                                                  ....

Chorus:
e|--------------------------------------------|
B|--------------------------------------------|
G|-66-7-7--66-7-7--66-7--22-7-7--22-7-7--22-7-|
D|-xx-x-x--xx-x-x--xx-x--xx-x-x--xx-x-x--xx-x-| x1
A|-44-5-5--44-5-5--44-5--00-5-5--00-5-5--00-5-|
E|--------------------------------------------|

Intro:
e|---------------------------|
B|-----7------------7--------|
G|-7------7-----7------7-----|
D|---7------7-----7------7---|
A|------------5------------5-|
E|---------------------------|

Pre-Chorus:
e|-------------------------------------------------------|
B|-------------------------------------------------------|
G|-7\6/7/9--7\6/7/9--7\6/7/9--7\6/7/9--7\6/7/9--7\6-6666-|
D|-x-x-x-x--x-x-x-x--x-x-x-x--x-x-x-x--x-x-x-x--x-x-xxxx-| x1
A|-5\4/5/7--5\4/5/7--5\4/5/7--5\4/5/7--5\4/5/7--5\4-4444-|
E|-------------------------------------------------------|
PM                                                  ....

Chorus:
e|--------------------------------------------|
B|--------------------------------------------|
G|-66-7-7--66-7-7--66-7--22-7-7--22-7-7--22-7-|
D|-xx-x-x--xx-x-x--xx-x--xx-x-x--xx-x-x--xx-x-| x4
A|-44-5-5--44-5-5--44-5--00-5-5--00-5-5--00-5-|
E|--------------------------------------------|

Bridge Part 1:
e|---------------------|
B|---------------------|
G|-7777-7777-7777-7777-|
D|-xxxx-xxxx-xxxx-xxxx-| x1
A|-5555-5555-5555-5555-|
E|---------------------|

e|------------------------------------|
B|------------------------------------|
G|-77-7-7--11-11-11-12-12-12-12-9-9-9-|
D|-xx-x-x--x--x--x--x--x--x--x--x-x-x-| x4
A|-55-5-5--9--9--9--11-11-11-11-7-7-7-|
E|------------------------------------|
PM .. . .

Chorus:
e|--------------------------------------------|
B|--------------------------------------------|
G|-66-7-7--66-7-7--66-7--22-7-7--22-7-7--22-7-|
D|-xx-x-x--xx-x-x--xx-x--xx-x-x--xx-x-x--xx-x-| x4
A|-44-5-5--44-5-5--44-5--00-5-5--00-5-5--00-5-|
E|--------------------------------------------|

Pre-Chorus:
e|-------------------------------------------------------|
B|-------------------------------------------------------|
G|-7\6/7/9--7\6/7/9--7\6/7/9--7\6/7/9--7\6/7/9--7\6-6666-|
D|-x-x-x-x--x-x-x-x--x-x-x-x--x-x-x-x--x-x-x-x--x-x-xxxx-| repeat once but in end
A|-5\4/5/7--5\4/5/7--5\4/5/7--5\4/5/7--5\4/5/7--5\4-4444-| of the last part 
E|-------------------------------------------------------| (dont PM do a 664)
PM                                                  ....
            
Submit corrections

comments powered by Disqus
↑ Back to top | *Blink 182* Tabs for Asthenia. Lyrics for acoustic guitar and electric guitar. 1 Tablatures and chords are parodies/interpretations of the original songs. You may use it for private study, scholarship, research or language learning purposes only