» » »

*Blink 182*, Anthem Tabs (ver.14)

Artists:  A B C D E F G H I J K L M N O P Q R S T U V W X Y Z # 

Anthem Tabs (ver.14)

*Blink 182* Tabs
 Rating:
4/5 (4 votes)
Anthem lessons Tabs too difficult? Try these video lessons and learn fast
1
                (PartTwoLive)
Blink 182

OK I already tabbed an Anthem Part Two, but it wasn't right and now after looking at quite a few live performances and listening to the cd I've got the 100% correct tab for Anthem Part Two. Believe me it is, so here you go... Use this little joke before you play it and you gotta get at least one laugh:

"There's a kid in my class that got a boner in P.E. in high school. He was wearing sweat pants it was really embarassing so this song goes out to him" -Tom Delonge

INTRO: 1
e----------------------------------------------------------
B-8---8---6---6---5---5---6---6----------------------------
G---5---5---5---5---5---5---5---5--(X4)--------------------
D----------------------------------------------------------
A----------------------------------------------------------
E----------------------------------------------------------

INTRO: 2
OK for the part below keep your middle finger planted on the "A" string and use your ring finger to hammer the 0h3 on the "D" string and than use your index finger to for the 2's on the "D" string. It's hard at first, but once you get used to it, it's really easy.
e----------------------------------------------------------
B----------------------------------------------------------
G----------------------------------------------------------
D-----0h3-----2-----0h3-----2-----0h3-----2-----0-----0----
A-3-3-----3-3---3-3-----3-3---3-3-----3-3---3-3---3-3--(X3)
E----------------------------------------------------------
  P M     P M   P M     P M   P M     P M   P M   P M

e----------------------------------------------------------
B----------------------------------------------------------
G----------------------------------------------555--555----
D-----0h3-----2-----0h3-----2-----0h3-----2----555--555----
A-3-3-----3-3---3-3-----3-3---3-3-----3-3------333--333----
E----------------------------------------------------------
  P M     P M   P M     P M   P M     P M

INTRO: 3
e----------------------------------------------------------
B----------------------------------------------------------
G-9-9---10-10---9-9---5-5---7-7-7-7------------------------
D-9-9---10-10---9-9---5-5---7-7-7-7---(X3)-----------------
A-7-7---8--8----7-7---3-3---5-5-5-5------------------------
E----------------------------------------------------------

e----------------------------------------------------------
B----------------------------------------------------------
G-9-9---10-10---5-5-5-5-5-5-5-5----------------------------
D-9-9---10-10---5-5-5-5-5-5-5-5---let ring-----------------
A-7-7---8--8----3-3-3-3-3-3-3-3----------------------------
E----------------------------------------------------------

VERSE:
Everything has fallen to pieces
Earth is dying, help me Jesus

e----------------------------------------------------------
B----------------------------------------------------------
G-5--------------------------------------------------------
D-5--------------------------------------------------------
A-3---3-3-3-3-3-3-3-3---0-0-0-0----------------------------
E---------------------------------1-1-1-1------------------
      P.M.-------------------------------
      We need guidance, we've been misled
      Young and hostile  but not  stupid

INTERLUDE: It's on bass but oh well guitars fine too
e----------------------------------------------------------
B----------------------------------------------------------
G---------------------------------------------5------------
D---------------------------------------------5-let ring---
A-----7-----------5-----------3---------------3------------
E-5-------5---3-------3---1--------------------------------

e

VERSE:
Corporate leaders, politicians
Kids can't vote, adults elect them

e----------------------------------------------------------
B----------------------------------------------------------
G-5--------------------------------------------------------
D-5--------------------------------------------------------
A-3---3-3-3-3-3-3-3-3---0-0-0-0----------------------------
E---------------------------------1-1-1-1------------------
      P.M.-------------------------------
     Laws that rule the school and workplace
     Signs that caution sixteen's unsafe

INTERLUDE:
A-----7-----------5-----------3----------------------------
E-5-------5---3-------3---1--------------------------------

CHORUS:
e----------------------------------------------------------
B----------------------------------------------------------
G------------------------------5-5-5-5---------------------
D----------2-2-2-2---3-3-3-3---5-5-5-5---5-5-5-5-----------
A----------2-2-2-2---3-3-3-3---3-3-3-3---5-5-5-5-----------
E----------0-0-0-0---1-1-1-1-------------3-3-3-3-----------
 We really need      to        see this  through
 We never  want  -   ed   to   be ab - used
 We'll never give    up        it's no   use
           If we're  f**ked    up, your  to blame

PLAY THE THIRD PART OF THE INTRO INTO THE VERSE AGAIN

VERSE:
Let this train-wreck burn more slowly
Kids are victims in this story
e----------------------------------------------------------
B----------------------------------------------------------
G-5--------------------------------------------------------
D-5--------------------------------------------------------
A-3---3-3-3-3-3-3-3-3----0-0-0-0---------------------------
E-----------------------------------1-1-1-1----------------
      P.M.---------------------------------
      Drown the youth with useless warnings
      Teenage rules, they're f**ked and boring

INERLUDE:
A-----7-----------5-----------3----------------------------
E-5-------5---3-------3---1--------------------------------

CHORUS:
e----------------------------------------------------------
B----------------------------------------------------------
G------------------------------5-5-5-5---------------------
D----------2-2-2-2---3-3-3-3---5-5-5-5---5-5-5-5-----------
A----------2-2-2-2---3-3-3-3---3-3-3-3---5-5-5-5-----------
E----------0-0-0-0---1-1-1-1-------------3-3-3-3-----------
 We really need      to        see this  through
 We never  want  -   ed   to   be ab - used
 We'll never give    up        it's no   use
           If we're f**ked up, your too blame

BASS SOLO:
Everything has fallen to pieces
Everything has fallen to pieces
Everything has fallen to pieces
Everything has fallen to...

CHORUS:
e----------------------------------------------------------
B----------------------------------------------------------
G------------------------------5-5-5-5---------------------
D----------2-2-2-2---3-3-3-3---5-5-5-5---5-5-5-5-----------
A----------2-2-2-2---3-3-3-3---3-3-3-3---5-5-5-5-----------
E----------0-0-0-0---1-1-1-1-------------3-3-3-3-----------
 We really need      to        see this  through
 We never  want  -   ed   to   be ab - used
 We'll never give    up        it's no   use
           If we're f**ked up, your too blame


e----------------------------------------------------------
B----------------------------------------------------------
G----------------------------------------------------------
D-----0h3-----2-----0h3-----2-----0h3-----2-----0-----0----
A-3-3-----3-3---3-3-----3-3---3-3-----3-3---3-3---3-3--(X3)
E----------------------------------------------------------

e----------------------------------------------------------
B----------------------------------------------------------
G----------------------------------------------5-----------
D-----0h3-----2-----0h3-----2-----0h3-----2----5-let ring--
A-3-3-----3-3---3-3-----3-3---3-3-----3-3------3-----------
E----------------------------------------------------------
            
Submit corrections

comments powered by Disqus
↑ Back to top | *Blink 182* Tabs for Anthem. Lyrics for acoustic guitar and electric guitar. 1 Tablatures and chords are parodies/interpretations of the original songs. You may use it for private study, scholarship, research or language learning purposes only