» » »

Anthem Tabs (ver.3)

Artists:  A B C D E F G H I J K L M N O P Q R S T U V W X Y Z # 

Anthem Tabs (ver.3)

*Blink 182*
Rating:
0/5 (0 votes)

Hard to play? Try these video lessons and learn fast.
                Blink 182
"Anthem Part Two"

Updated August 20, 2000

Note: The controversial interlude riff can be played on bass or guitar, I have
it transcribed for guitar.  If the riff is played on bass, my apologies, but I
fail to understand how that has anything to do with the accuracy of the tab.

Chords Used

NC [No Chord]
A5 [577xxx]
C5 [x355xx]
C8 [x3x5xx]
D5 [x577xx]
D8 [x5x7xx]
E5 [022xxx]
E8 [x7x9xx]
F5 [133xxx]
F8 [x8x10xx]
G5 [355xxx]

Guitar 1 (0:00-0:10)
|--------------------------------------------------------------------------------|
|--------------------------------------------------------------------------------|
|--------------------------------------------------------------------------------|
|-5-5-5-5-------------------------5-5-5-5----------------------------------------|
|-3-3-3-3-------------------------3-3-3-3----------------------------------------|
|--------------------------------------------------------------------------------|

Guitar 2 (0:00-0:10)
|--------------------------------------------------------------------------------|
|-8---8---6---6---5---5---6---6---8---8---6---6---5---5---6---6------------------|
|---5---5---5---5---5---5---5---5---5---5---5---5---5---5---5---5----------------|
|--------------------------------------------------------------------------------|
|--------------------------------------------------------------------------------|
|--------------------------------------------------------------------------------|

Guitar 1 (0:11-0:19)
|--------------------------------------------------------------------------------|
|--------------------------------------------------------------------------------|
|--------------------------------------------------------------------------------|
|-5-5-5-5------------------------------------------------------------------------|
|-3-3-3-3------------------------------------------------------------------------|
|--------------------------------------------------------------------------------|

Guitar 2 (0:11-0:19)
|--------------------------------------------------------------------------------|
|-8---8---6---6---5---5---6---6---8---8---6---6---5---5---6---6------------------|
|---5---5---5---5---5---5---5---5---5---5---5---5---5---5---5---5----------------|
|--------------------------------------------------------------------------------|
|--------------------------------------------------------------------------------|
|--------------------------------------------------------------------------------|

Guitar 1 (0:20-0:33)
|-------------------------------------------------------------------Play-3-Times-|
|--------------------------------------------------------------------------------|
|--------------------------------------------------------------------------------|
|-----2h3---2-----2h3---2-----2h3---2-----0-----0--------------------------------|
|-3-3-----3---3-3-----3---3-3-----3---3-3---3-3----------------------------------|
|--------------------------------------------------------------------------------|

Guitar 2 (0:20-0:33)
|-------------------------------------------------------------------Play-3-Times-|
|-8---8---6---6---5---5---6---6--------------------------------------------------|
|---5---5---5---5---5---5---5---5------------------------------------------------|
|--------------------------------------------------------------------------------|
|--------------------------------------------------------------------------------|
|--------------------------------------------------------------------------------|

Guitar 1 (0:34-0:37)
|--------------------------------------------------------------------------------|
|--------------------------------------------------------------------------------|
|-------------------------------------5-5-5-5--5-5-5-5---------------------------|
|-----2h3---2-----2h3---2-----2h3---2-5-5-5-5--5-5-5-5---------------------------|
|-3-3-----3---3-3-----3---3-3-----3---3-3-3-3--3-3-3-3---------------------------|
|--------------------------------------------------------------------------------|

Guitar 2 (0:34-0:37)
|--------------------------------------------------------------------------------|
|-8---8---6---6---5---5----------------------------------------------------------|
|---5---5---5---5---5---5--------------------------------------------------------|
|--------------------------------------------------------------------------------|
|--------------------------------------------------------------------------------|
|--------------------------------------------------------------------------------|

Guitar 1 (0:38-0:44)
|--------------------------------------------------------------------------------|
|--------------------------------------------------------------------------------|
|-9-9-9-10-10-9-5-5-5-7-7-7-9-9-9-10-10-9-5-5-5-7-7-7-9-9-9-10-10-9-5-5-5-7-7-7--|
|-x-x-x--x--x-x-x-x-x-x-x-x-x-x-x--x--x-x-x-x-x-x-x-x-x-x-x--x--x-x-x-x-x-x-x-x--|
|-7-7-7--8--8-7-3-3-3-5-5-5-7-7-7--8--8-7-3-3-3-5-5-5-7-7-7--8--8-7-3-3-3-5-5-5--|
|--------------------------------------------------------------------------------|

(Rhythm Behind Above and Below Progressions: C5 - A5 - F5)

|--------------------------------------------------------------------------------|
|--------------------------------------------------------------------------------|
|-9-9-9-10-10-5-5-5-5-5-5-5-5-5--------------------------------------------------|
|-x-x-x--x--x-x-x-x-x-x-x-x-x-x--------------------------------------------------|
|-7-7-7--8--8-3-3-3-3-3-3-3-3-3--------------------------------------------------|
|--------------------------------------------------------------------------------|

Everything has fallen to pieces
Earth is dying, help me Jesus
[E8/C5]We need guidance, [A5]we've been [F5]misled
[C5]Young and hostile [A5]but not [F5]stupid

|----------------------------------------|
|----------------------------------------|
|----------------------------------------|
|----------------------------------------|
|---7-----5-----3------------------------|
|-5---5-3---3-1--------------------------|

[C8]Corporate [NC]leaders, politicians
Kids can't vote, adults elect them
[E8/C5]Laws that rule the [A5]school and [F5]workplace
[C5]Signs that caution [A5]sixteen's [F5]unsafe

|----------------------------------------|
|----------------------------------------|
|----------------------------------------|
|----------------------------------------|
|---7-----5-----3------------------------|
|-5---5-3---3-1--------------------------|

We really [E5]need [F5]to [C5]see this [G5]through
We never [E5]wan[F5]ted to [C5]be a[G5]bused
We'll never [E5]give [F5]up, [C5]it's no [G5]use
If [E5]we're ***ed up, [F5]you're [NC]to blame

(Rhythm Behind Chorus: C8)

Guitar 1 (0:38-0:44)
|--------------------------------------------------------------------------------|
|--------------------------------------------------------------------------------|
|-9-9-9-10-10-9-5-5-5-7-7-7-9-9-9-10-10-9-5-5-5-7-7-7-9-9-9-10-10-9-5-5-5-7-7-7--|
|-x-x-x--x--x-x-x-x-x-x-x-x-x-x-x--x--x-x-x-x-x-x-x-x-x-x-x--x--x-x-x-x-x-x-x-x--|
|-7-7-7--8--8-7-3-3-3-5-5-5-7-7-7--8--8-7-3-3-3-5-5-5-7-7-7--8--8-7-3-3-3-5-5-5--|
|--------------------------------------------------------------------------------|

(Rhythm Behind Above and Below Progression: C5 - A5 - F5)

|--------------------------------------------------------------------------------|
|--------------------------------------------------------------------------------|
|-9-9-9-10-10-5-5-5-5-5-5-5-5-5--------------------------------------------------|
|-x-x-x--x--x-x-x-x-x-x-x-x-x-x--------------------------------------------------|
|-7-7-7--8--8-3-3-3-3-3-3-3-3-3--------------------------------------------------|
|--------------------------------------------------------------------------------|

Let this train-wreck burn more slowly
Kids are victims in this story
[E8/C5]Drown the youth with [A5]useless [F5]warnings
[C5]Teenage rules, they're [A5]***ed and [F5]boring

We really [E5]need [F5]to [C5]see this [G5]through
We never [E5]wan[F5]ted to [C5]be a[G5]bused
We'll never [E5]give [F5]up, [C5]it's no [G5]use
If [E5]we're ***ed up, [F5]you're [NC]to blame

(Rhythm Behind Chorus: C8)

[NC]Everything has fallen to pieces
Everything has fallen to pieces
Everything has fallen to pieces
Everything has fallen to ...

We really [E5]need [F5]to [C5]see this [G5]through
We never [E5]wan[F5]ted to [C5]be a[G5]bused
We'll never [E5]give [F5]up, [C5]it's no [G5]use
If [E5]we're ***ed up, [F5]you're [NC]to blame

(Rhythm Behind Chorus: C8)

Guitar 1 (3:23-3:32)
|-------------------------------------------------------------------Play-2-Times-|
|--------------------------------------------------------------------------------|
|--------------------------------------------------------------------------------|
|-----2h3---2-----2h3---2-----2h3---2-----0-----0--------------------------------|
|-3-3-----3---3-3-----3---3-3-----3---3-3---3-3----------------------------------|
|--------------------------------------------------------------------------------|

(Rhythm Behind Above Riff: C5 - D5 - A5 - F5)

Guitar 1 (3:33-3:37)
|--------------------------------------------------------------------------------|
|--------------------------------------------------------------------------------|
|--------------------------------------------------------------------------------|
|-----2h3---2-----2h3---2-----2h3---2-----0-----0--------------------------------|
|-3-3-----3---3-3-----3---3-3-----3---3-3---3-3----------------------------------|
|--------------------------------------------------------------------------------|

Guitar 2 (3:33-3:37)
|--------------------------------------------------------------------------------|
|-8---8---6---6---5---5---6---6--------------------------------------------------|
|---5---5---5---5---5---5---5---5------------------------------------------------|
|--------------------------------------------------------------------------------|
|--------------------------------------------------------------------------------|
|--------------------------------------------------------------------------------|

(Rhythm Behind Above Riffs: C5 - D5 - A5 - F5)

Guitar 1 (3:38-3:48)
|--------------------------------------------------------------------------------|
|--------------------------------------------------------------------------------|
|--------------------------------------------------------------------------------|
|-----2h3---2-----2h3---2-----2h3---2--------------------------------------------|
|-3-3-----3---3-3-----3---3-3-----3----------------------------------------------|
|--------------------------------------------------------------------------------|

Guitar 2(3:38-3:48)
|--------------------------------------------------------------------------------|
|-8---8---6---6---5---5----------------------------------------------------------|
|---5---5---5---5---5---5--------------------------------------------------------|
|--------------------------------------------------------------------------------|
|--------------------------------------------------------------------------------|
|--------------------------------------------------------------------------------|

(Rhythm Behind Above Riffs: C5 - D5 - A5 - F5)
            
Hard to play? Try these video lessons and learn fast. | Correct




comments powered by Disqus
↑ Back to top | Tablatures and chords are parodies/interpretations of the original songs. You may use it for private study, scholarship, research or language learning purposes only